  0
SECTION
  2
HEADER
  9
$ACADVER
  1
AC1032
  9
$ACADMAINTVER
 90
      155
  9
$DWGCODEPAGE
  3
ANSI_936
  9
$REQUIREDVERSIONS
160
                 0
  9
$INSBASE
 10
0.0
 20
0.0
 30
0.0
  9
$EXTMIN
 10
1.000000000000000E+20
 20
1.000000000000000E+20
 30
1.000000000000000E+20
  9
$EXTMAX
 10
-1.000000000000000E+20
 20
-1.000000000000000E+20
 30
-1.000000000000000E+20
  9
$LIMMIN
 10
0.0
 20
0.0
  9
$LIMMAX
 10
12.0
 20
9.0
  9
$ORTHOMODE
 70
     0
  9
$REGENMODE
 70
     1
  9
$FILLMODE
 70
     1
  9
$QTEXTMODE
 70
     0
  9
$MIRRTEXT
 70
     0
  9
$LTSCALE
 40
1.0
  9
$ATTMODE
 70
     1
  9
$TEXTSIZE
 40
0.2
  9
$TRACEWID
 40
0.05
  9
$TEXTSTYLE
  7
Standard
  9
$CLAYER
  8
0
  9
$CELTYPE
  6
ByLayer
  9
$CECOLOR
 62
   256
  9
$CELTSCALE
 40
1.0
  9
$DISPSILH
 70
     0
  9
$DIMSCALE
 40
1.0
  9
$DIMASZ
 40
0.18
  9
$DIMEXO
 40
0.0625
  9
$DIMDLI
 40
0.38
  9
$DIMRND
 40
0.0
  9
$DIMDLE
 40
0.0
  9
$DIMEXE
 40
0.18
  9
$DIMTP
 40
0.0
  9
$DIMTM
 40
0.0
  9
$DIMTXT
 40
0.18
  9
$DIMCEN
 40
0.09
  9
$DIMTSZ
 40
0.0
  9
$DIMTOL
 70
     0
  9
$DIMLIM
 70
     0
  9
$DIMTIH
 70
     1
  9
$DIMTOH
 70
     1
  9
$DIMSE1
 70
     0
  9
$DIMSE2
 70
     0
  9
$DIMTAD
 70
     0
  9
$DIMZIN
 70
     0
  9
$DIMBLK
  1

  9
$DIMASO
 70
     1
  9
$DIMSHO
 70
     1
  9
$DIMPOST
  1

  9
$DIMAPOST
  1

  9
$DIMALT
 70
     0
  9
$DIMALTD
 70
     2
  9
$DIMALTF
 40
25.4
  9
$DIMLFAC
 40
1.0
  9
$DIMTOFL
 70
     0
  9
$DIMTVP
 40
0.0
  9
$DIMTIX
 70
     0
  9
$DIMSOXD
 70
     0
  9
$DIMSAH
 70
     0
  9
$DIMBLK1
  1

  9
$DIMBLK2
  1

  9
$DIMSTYLE
  2
Standard
  9
$DIMCLRD
 70
     0
  9
$DIMCLRE
 70
     0
  9
$DIMCLRT
 70
     0
  9
$DIMTFAC
 40
1.0
  9
$DIMGAP
 40
0.09
  9
$DIMJUST
 70
     0
  9
$DIMSD1
 70
     0
  9
$DIMSD2
 70
     0
  9
$DIMTOLJ
 70
     1
  9
$DIMTZIN
 70
     0
  9
$DIMALTZ
 70
     0
  9
$DIMALTTZ
 70
     0
  9
$DIMUPT
 70
     0
  9
$DIMDEC
 70
     4
  9
$DIMTDEC
 70
     4
  9
$DIMALTU
 70
     2
  9
$DIMALTTD
 70
     2
  9
$DIMTXSTY
  7
Standard
  9
$DIMAUNIT
 70
     0
  9
$DIMADEC
 70
     0
  9
$DIMALTRND
 40
0.0
  9
$DIMAZIN
 70
     0
  9
$DIMDSEP
 70
    46
  9
$DIMATFIT
 70
     3
  9
$DIMFRAC
 70
     0
  9
$DIMLDRBLK
  1

  9
$DIMLUNIT
 70
     2
  9
$DIMLWD
 70
    -2
  9
$DIMLWE
 70
    -2
  9
$DIMTMOVE
 70
     0
  9
$DIMFXL
 40
1.0
  9
$DIMFXLON
 70
     0
  9
$DIMJOGANG
 40
0.7853981633974483
  9
$DIMTFILL
 70
     0
  9
$DIMTFILLCLR
 70
     0
  9
$DIMARCSYM
 70
     0
  9
$DIMLTYPE
  6

  9
$DIMLTEX1
  6

  9
$DIMLTEX2
  6

  9
$DIMTXTDIRECTION
 70
     0
  9
$LUNITS
 70
     2
  9
$LUPREC
 70
     4
  9
$SKETCHINC
 40
0.1
  9
$FILLETRAD
 40
0.0
  9
$AUNITS
 70
     0
  9
$AUPREC
 70
     0
  9
$MENU
  1
.
  9
$ELEVATION
 40
0.0
  9
$PELEVATION
 40
0.0
  9
$THICKNESS
 40
0.0
  9
$LIMCHECK
 70
     0
  9
$CHAMFERA
 40
0.0
  9
$CHAMFERB
 40
0.0
  9
$CHAMFERC
 40
0.0
  9
$CHAMFERD
 40
0.0
  9
$SKPOLY
 70
     0
  9
$TDCREATE
 40
2459935.489386574
  9
$TDUCREATE
 40
2459935.156053241
  9
$TDUPDATE
 40
2459935.489386574
  9
$TDUUPDATE
 40
2459935.156053241
  9
$TDINDWG
 40
0.0000000000
  9
$TDUSRTIMER
 40
0.0000000000
  9
$USRTIMER
 70
     1
  9
$ANGBASE
 50
0.0
  9
$ANGDIR
 70
     0
  9
$PDMODE
 70
     0
  9
$PDSIZE
 40
0.0
  9
$PLINEWID
 40
0.0
  9
$SPLFRAME
 70
     0
  9
$SPLINETYPE
 70
     6
  9
$SPLINESEGS
 70
     8
  9
$HANDSEED
  5
1BD
  9
$SURFTAB1
 70
     6
  9
$SURFTAB2
 70
     6
  9
$SURFTYPE
 70
     6
  9
$SURFU
 70
     6
  9
$SURFV
 70
     6
  9
$UCSBASE
  2

  9
$UCSNAME
  2

  9
$UCSORG
 10
0.0
 20
0.0
 30
0.0
  9
$UCSXDIR
 10
1.0
 20
0.0
 30
0.0
  9
$UCSYDIR
 10
0.0
 20
1.0
 30
0.0
  9
$UCSORTHOREF
  2

  9
$UCSORTHOVIEW
 70
     0
  9
$UCSORGTOP
 10
0.0
 20
0.0
 30
0.0
  9
$UCSORGBOTTOM
 10
0.0
 20
0.0
 30
0.0
  9
$UCSORGLEFT
 10
0.0
 20
0.0
 30
0.0
  9
$UCSORGRIGHT
 10
0.0
 20
0.0
 30
0.0
  9
$UCSORGFRONT
 10
0.0
 20
0.0
 30
0.0
  9
$UCSORGBACK
 10
0.0
 20
0.0
 30
0.0
  9
$PUCSBASE
  2

  9
$PUCSNAME
  2

  9
$PUCSORG
 10
0.0
 20
0.0
 30
0.0
  9
$PUCSXDIR
 10
1.0
 20
0.0
 30
0.0
  9
$PUCSYDIR
 10
0.0
 20
1.0
 30
0.0
  9
$PUCSORTHOREF
  2

  9
$PUCSORTHOVIEW
 70
     0
  9
$PUCSORGTOP
 10
0.0
 20
0.0
 30
0.0
  9
$PUCSORGBOTTOM
 10
0.0
 20
0.0
 30
0.0
  9
$PUCSORGLEFT
 10
0.0
 20
0.0
 30
0.0
  9
$PUCSORGRIGHT
 10
0.0
 20
0.0
 30
0.0
  9
$PUCSORGFRONT
 10
0.0
 20
0.0
 30
0.0
  9
$PUCSORGBACK
 10
0.0
 20
0.0
 30
0.0
  9
$USERI1
 70
     0
  9
$USERI2
 70
     0
  9
$USERI3
 70
     0
  9
$USERI4
 70
     0
  9
$USERI5
 70
     0
  9
$USERR1
 40
0.0
  9
$USERR2
 40
0.0
  9
$USERR3
 40
0.0
  9
$USERR4
 40
0.0
  9
$USERR5
 40
0.0
  9
$WORLDVIEW
 70
     1
  9
$SHADEDGE
 70
     3
  9
$SHADEDIF
 70
    70
  9
$TILEMODE
 70
     1
  9
$MAXACTVP
 70
    64
  9
$PINSBASE
 10
0.0
 20
0.0
 30
0.0
  9
$PLIMCHECK
 70
     0
  9
$PEXTMIN
 10
1.000000000000000E+20
 20
1.000000000000000E+20
 30
1.000000000000000E+20
  9
$PEXTMAX
 10
-1.000000000000000E+20
 20
-1.000000000000000E+20
 30
-1.000000000000000E+20
  9
$PLIMMIN
 10
0.0
 20
0.0
  9
$PLIMMAX
 10
12.0
 20
9.0
  9
$UNITMODE
 70
     0
  9
$VISRETAIN
 70
     1
  9
$PLINEGEN
 70
     0
  9
$PSLTSCALE
 70
     1
  9
$TREEDEPTH
 70
  3020
  9
$CMLSTYLE
  2
Standard
  9
$CMLJUST
 70
     0
  9
$CMLSCALE
 40
1.0
  9
$PROXYGRAPHICS
 70
     1
  9
$MEASUREMENT
 70
     0
  9
$CELWEIGHT
370
    -1
  9
$ENDCAPS
280
     0
  9
$JOINSTYLE
280
     0
  9
$LWDISPLAY
290
     1
  9
$INSUNITS
 70
     0
  9
$HYPERLINKBASE
  1

  9
$STYLESHEET
  1

  9
$XEDIT
290
     1
  9
$CEPSNTYPE
380
     0
  9
$PSTYLEMODE
290
     1
  9
$FINGERPRINTGUID
  2
{654D7E49-F35F-6648-AF16-3CE257928842}
  9
$VERSIONGUID
  2
{6C3973A4-E25B-524B-987B-75AE292133E3}
  9
$EXTNAMES
290
     1
  9
$PSVPSCALE
 40
0.0
  9
$OLESTARTUP
290
     0
  9
$SORTENTS
280
   127
  9
$INDEXCTL
280
     0
  9
$HIDETEXT
280
     1
  9
$XCLIPFRAME
280
     2
  9
$HALOGAP
280
     0
  9
$OBSCOLOR
 70
   257
  9
$OBSLTYPE
280
     0
  9
$INTERSECTIONDISPLAY
280
     0
  9
$INTERSECTIONCOLOR
 70
   257
  9
$DIMASSOC
280
     2
  9
$PROJECTNAME
  1

  9
$CAMERADISPLAY
290
     0
  9
$LENSLENGTH
 40
50.0
  9
$CAMERAHEIGHT
 40
0.0
  9
$STEPSPERSEC
 40
2.0
  9
$STEPSIZE
 40
6.0
  9
$3DDWFPREC
 40
2.0
  9
$PSOLWIDTH
 40
0.25
  9
$PSOLHEIGHT
 40
4.0
  9
$LOFTANG1
 40
1.570796326794896
  9
$LOFTANG2
 40
1.570796326794896
  9
$LOFTMAG1
 40
0.0
  9
$LOFTMAG2
 40
0.0
  9
$LOFTPARAM
 70
     7
  9
$LOFTNORMALS
280
     1
  9
$LATITUDE
 40
37.795
  9
$LONGITUDE
 40
-122.394
  9
$NORTHDIRECTION
 40
0.0
  9
$TIMEZONE
 70
 -8000
  9
$LIGHTGLYPHDISPLAY
280
     1
  9
$TILEMODELIGHTSYNCH
280
     1
  9
$CMATERIAL
347
11
  9
$SOLIDHIST
280
     0
  9
$SHOWHIST
280
     1
  9
$DWFFRAME
280
     2
  9
$DGNFRAME
280
     0
  9
$REALWORLDSCALE
290
     1
  9
$INTERFERECOLOR
 62
     1
  9
$INTERFEREOBJVS
345
33
  9
$INTERFEREVPVS
346
30
  9
$CSHADOW
280
     0
  9
$SHADOWPLANELOCATION
 40
0.0
  0
ENDSEC
  0
SECTION
  2
CLASSES
  0
CLASS
  1
ACDBDICTIONARYWDFLT
  2
AcDbDictionaryWithDefault
  3
ObjectDBX Classes
 90
        0
 91
        1
280
     0
281
     0
  0
CLASS
  1
MATERIAL
  2
AcDbMaterial
  3
ObjectDBX Classes
 90
     1153
 91
        3
280
     0
281
     0
  0
CLASS
  1
VISUALSTYLE
  2
AcDbVisualStyle
  3
ObjectDBX Classes
 90
     4095
 91
       24
280
     0
281
     0
  0
CLASS
  1
SCALE
  2
AcDbScale
  3
ObjectDBX Classes
 90
     1153
 91
       17
280
     0
281
     0
  0
CLASS
  1
TABLESTYLE
  2
AcDbTableStyle
  3
ObjectDBX Classes
 90
     4095
 91
        1
280
     0
281
     0
  0
CLASS
  1
MLEADERSTYLE
  2
AcDbMLeaderStyle
  3
ACDB_MLEADERSTYLE_CLASS
 90
     4095
 91
        1
280
     0
281
     0
  0
CLASS
  1
ACDBSECTIONVIEWSTYLE
  2
AcDbSectionViewStyle
  3
ObjectDBX Classes
 90
     1025
 91
        1
280
     0
281
     0
  0
CLASS
  1
ACDBDETAILVIEWSTYLE
  2
AcDbDetailViewStyle
  3
ObjectDBX Classes
 90
     1025
 91
        1
280
     0
281
     0
  0
CLASS
  1
DICTIONARYVAR
  2
AcDbDictionaryVar
  3
ObjectDBX Classes
 90
        0
 91
        5
280
     0
281
     0
  0
CLASS
  1
CELLSTYLEMAP
  2
AcDbCellStyleMap
  3
ObjectDBX Classes
 90
     1152
 91
        1
280
     0
281
     0
  0
ENDSEC
  0
SECTION
  2
TABLES
  0
TABLE
  2
VPORT
  5
8
330
0
100
AcDbSymbolTable
 70
     1
  0
VPORT
  5
57
330
8
100
AcDbSymbolTableRecord
100
AcDbViewportTableRecord
  2
*Active
 70
     0
 10
0.0
 20
0.0
 11
1.0
 21
1.0
 12
0.0
 22
0.0
 13
0.0
 23
0.0
 14
1.0
 24
1.0
 15
0.0
 25
0.0
 16
0.0
 26
0.0
 36
1.0
 17
297.6379999999999
 27
-420.9449999999996
 37
0.0
 40
858.7277999999994
 41
0.7070709950231031
 42
50.0
 43
0.0
 44
0.0
 50
0.0
 51
0.0
 71
     0
 72
   100
 73
     1
 74
     0
 75
     1
 76
     0
 77
     0
 78
     0
281
     0
 65
     1
110
0.0
120
0.0
130
0.0
111
1.0
121
0.0
131
0.0
112
0.0
122
1.0
132
0.0
 79
     0
146
0.0
 60
     3
 61
     5
292
     1
282
     1
141
0.0
142
0.0
 63
   250
421
  3355443
  0
ENDTAB
  0
TABLE
  2
LTYPE
  5
5
330
0
100
AcDbSymbolTable
 70
     1
  0
LTYPE
  5
5B
330
5
100
AcDbSymbolTableRecord
100
AcDbLinetypeTableRecord
  2
ByBlock
 70
     0
  3

 72
    65
 73
     0
 40
0.0
  0
LTYPE
  5
5C
330
5
100
AcDbSymbolTableRecord
100
AcDbLinetypeTableRecord
  2
ByLayer
 70
     0
  3

 72
    65
 73
     0
 40
0.0
  0
LTYPE
  5
5D
330
5
100
AcDbSymbolTableRecord
100
AcDbLinetypeTableRecord
  2
Continuous
 70
     0
  3
Solid line
 72
    65
 73
     0
 40
0.0
  0
ENDTAB
  0
TABLE
  2
LAYER
  5
2
330
0
100
AcDbSymbolTable
 70
     2
  0
LAYER
  5
54
330
2
100
AcDbSymbolTableRecord
100
AcDbLayerTableRecord
  2
0
 70
     0
 62
     7
  6
Continuous
370
    -3
390
F
347
21
348
0
  0
LAYER
  5
78
330
2
100
AcDbSymbolTableRecord
100
AcDbLayerTableRecord
  2
图层 1
 70
     0
 62
     7
  6
Continuous
370
     0
390
F
347
21
348
0
  0
ENDTAB
  0
TABLE
  2
STYLE
  5
3
330
0
100
AcDbSymbolTable
 70
     2
  0
STYLE
  5
55
330
3
100
AcDbSymbolTableRecord
100
AcDbTextStyleTableRecord
  2
Standard
 70
     0
 40
0.0
 41
1.0
 50
0.0
 71
     0
 42
0.2
  3
txt
  4

  0
STYLE
  5
5A
330
3
100
AcDbSymbolTableRecord
100
AcDbTextStyleTableRecord
  2
Annotative
 70
     0
 40
0.0
 41
1.0
 50
0.0
 71
     0
 42
0.2
  3
txt
  4

1001
AcadAnnotative
1000
AnnotativeData
1002
{
1070
     1
1070
     1
1002
}
  0
ENDTAB
  0
TABLE
  2
VIEW
  5
6
330
0
100
AcDbSymbolTable
 70
     0
  0
ENDTAB
  0
TABLE
  2
UCS
  5
7
330
0
100
AcDbSymbolTable
 70
     0
  0
ENDTAB
  0
TABLE
  2
APPID
  5
9
330
0
100
AcDbSymbolTable
 70
     2
  0
APPID
  5
56
330
9
100
AcDbSymbolTableRecord
100
AcDbRegAppTableRecord
  2
ACAD
 70
     0
  0
APPID
  5
5E
330
9
100
AcDbSymbolTableRecord
100
AcDbRegAppTableRecord
  2
AcadAnnotative
 70
     0
  0
ENDTAB
  0
TABLE
  2
DIMSTYLE
  5
A
330
0
100
AcDbSymbolTable
 70
     2
100
AcDbDimStyleTable
 71
     0
  0
DIMSTYLE
105
58
330
A
100
AcDbSymbolTableRecord
100
AcDbDimStyleTableRecord
  2
Standard
 70
     0
340
55
  0
DIMSTYLE
105
59
330
A
100
AcDbSymbolTableRecord
100
AcDbDimStyleTableRecord
  2
Annotative
 70
     0
340
55
1001
AcadAnnotative
1000
AnnotativeData
1002
{
1070
     1
1070
     1
1002
}
  0
ENDTAB
  0
TABLE
  2
BLOCK_RECORD
  5
1
330
0
100
AcDbSymbolTable
 70
     1
  0
BLOCK_RECORD
  5
70
330
1
100
AcDbSymbolTableRecord
100
AcDbBlockTableRecord
  2
*Model_Space
340
73
 70
     0
280
     1
281
     0
  0
BLOCK_RECORD
  5
6C
330
1
100
AcDbSymbolTableRecord
100
AcDbBlockTableRecord
  2
*Paper_Space
340
6F
 70
     0
280
     1
281
     0
  0
BLOCK_RECORD
  5
74
330
1
100
AcDbSymbolTableRecord
100
AcDbBlockTableRecord
  2
*Paper_Space0
340
77
 70
     0
280
     1
281
     0
  0
ENDTAB
  0
ENDSEC
  0
SECTION
  2
BLOCKS
  0
BLOCK
  5
71
330
70
100
AcDbEntity
  8
0
100
AcDbBlockBegin
  2
*Model_Space
 70
     0
 10
0.0
 20
0.0
 30
0.0
  3
*Model_Space
  1

  0
ENDBLK
  5
72
330
70
100
AcDbEntity
  8
0
100
AcDbBlockEnd
  0
BLOCK
  5
6D
330
6C
100
AcDbEntity
 67
     1
  8
0
100
AcDbBlockBegin
  2
*Paper_Space
 70
     0
 10
0.0
 20
0.0
 30
0.0
  3
*Paper_Space
  1

  0
ENDBLK
  5
6E
330
6C
100
AcDbEntity
 67
     1
  8
0
100
AcDbBlockEnd
  0
BLOCK
  5
75
330
74
100
AcDbEntity
 67
     1
  8
0
100
AcDbBlockBegin
  2
*Paper_Space0
 70
     0
 10
0.0
 20
0.0
 30
0.0
  3
*Paper_Space0
  1

  0
ENDBLK
  5
76
330
74
100
AcDbEntity
 67
     1
  8
0
100
AcDbBlockEnd
  0
ENDSEC
  0
SECTION
  2
ENTITIES
  0
SPLINE
  5
79
330
70
100
AcDbEntity
  8
图层 1
 62
   250
420
  2299925
370
    35
100
AcDbSpline
210
0.0
220
0.0
230
1.0
 70
     8
 71
     3
 72
    32
 73
    28
 74
     0
 42
0.0000000001
 43
0.0000000001
 40
0.0
 40
0.0
 40
0.0
 40
0.0
 40
1.0
 40
1.0
 40
1.0
 40
2.0
 40
2.0
 40
2.0
 40
3.0
 40
3.0
 40
3.0
 40
4.0
 40
4.0
 40
4.0
 40
5.0
 40
5.0
 40
5.0
 40
6.0
 40
6.0
 40
6.0
 40
7.0
 40
7.0
 40
7.0
 40
8.0
 40
8.0
 40
8.0
 40
9.0
 40
9.0
 40
9.0
 40
9.0
 10
215.7634882497496
 20
-324.0965116298112
 30
0.0
 10
215.7634882497496
 20
-324.0965116298112
 30
0.0
 10
220.0370370370374
 20
-295.5161863974936
 30
0.0
 10
242.9999999999991
 20
-315.3877228283782
 30
0.0
 10
265.9629629629617
 20
-335.2592592592628
 30
0.0
 10
241.9803720112595
 20
-310.1901000060188
 30
0.0
 10
241.9803720112595
 20
-310.1901000060188
 30
0.0
 10
241.9803720112595
 20
-310.1901000060188
 30
0.0
 10
241.5690181261434
 20
-273.2690889009236
 30
0.0
 10
275.2474720260343
 20
-286.1160259319449
 30
0.0
 10
275.2474720260343
 20
-286.1160259319449
 30
0.0
 10
290.8829259237682
 20
-249.3426190802765
 30
0.0
 10
314.348870369291
 20
-264.5231613919923
 30
0.0
 10
314.348870369291
 20
-264.5231613919923
 30
0.0
 10
358.2639859744631
 20
-214.4153293282952
 30
0.0
 10
370.2616226168611
 20
-271.5039609604464
 30
0.0
 10
370.2616226168611
 20
-271.5039609604464
 30
0.0
 10
406.051347335735
 20
-267.111111111114
 30
0.0
 10
402.3034514456448
 20
-298.2222222222254
 30
0.0
 10
402.3034514456448
 20
-298.2222222222254
 30
0.0
 10
425.2470974951738
 20
-303.021581329197
 30
0.0
 10
414.8642894883269
 20
-325.8070869608964
 30
0.0
 10
404.4814814814799
 20
-348.5925925925958
 30
0.0
 10
414.8518518518503
 20
-322.0924678002193
 30
0.0
 10
414.8518518518503
 20
-322.0924678002193
 30
0.0
 10
414.8518518518503
 20
-322.0924678002193
 30
0.0
 10
426.7577160415949
 20
-327.1624089463458
 30
0.0
 10
426.7307098726487
 20
-345.2849081768782
 30
0.0
  0
SPLINE
  5
7A
330
70
100
AcDbEntity
  8
图层 1
 62
   250
420
  2299925
370
    35
100
AcDbSpline
210
0.0
220
0.0
230
1.0
 70
     8
 71
     3
 72
    26
 73
    22
 74
     0
 42
0.0000000001
 43
0.0000000001
 40
0.0
 40
0.0
 40
0.0
 40
0.0
 40
1.0
 40
1.0
 40
1.0
 40
2.0
 40
2.0
 40
2.0
 40
3.0
 40
3.0
 40
3.0
 40
4.0
 40
4.0
 40
4.0
 40
5.0
 40
5.0
 40
5.0
 40
6.0
 40
6.0
 40
6.0
 40
7.0
 40
7.0
 40
7.0
 40
7.0
 10
220.1624420111439
 20
-326.4769690662843
 30
0.0
 10
220.1624420111439
 20
-326.4769690662843
 30
0.0
 10
219.727913935104
 20
-307.7878456455619
 30
0.0
 10
236.3333333333321
 20
-315.3877228283782
 30
0.0
 10
252.9387527315603
 20
-322.9876000111945
 30
0.0
 10
242.9999999999991
 20
-315.3877228283782
 30
0.0
 10
242.9999999999991
 20
-315.3877228283782
 30
0.0
 10
242.9999999999991
 20
-315.3877228283782
 30
0.0
 10
242.9211528780488
 20
-274.6464548391486
 30
0.0
 10
282.2198356982844
 20
-293.471375567724
 30
0.0
 10
282.2198356982844
 20
-293.471375567724
 30
0.0
 10
281.6678703692905
 20
-249.5365463531671
 30
0.0
 10
314.348870369291
 20
-271.5039609604464
 30
0.0
 10
314.348870369291
 20
-271.5039609604464
 30
0.0
 10
351.5973193077971
 20
-220.4839733512072
 30
0.0
 10
370.2616226168611
 20
-277.5012459348654
 30
0.0
 10
370.2616226168611
 20
-277.5012459348654
 30
0.0
 10
398.5555555555511
 20
-265.6296296296323
 30
0.0
 10
398.9259259259234
 20
-298.2222222222254
 30
0.0
 10
398.9259259259234
 20
-298.2222222222254
 30
0.0
 10
423.0497505458989
 20
-308.4893195559152
 30
0.0
 10
411.1730234210972
 20
-324.0965116298112
 30
0.0
  0
LWPOLYLINE
  5
7B
330
70
100
AcDbEntity
  8
图层 1
 62
   250
420
  2299925
370
    35
100
AcDbPolyline
 90
        1
 70
     0
 43
0.0
 10
336.3333435058594
 20
-27.11111068725586
  0
SPLINE
  5
7C
330
70
100
AcDbEntity
  8
图层 1
 62
   250
420
  2299925
370
    70
100
AcDbSpline
210
0.0
220
0.0
230
1.0
 70
     8
 71
     3
 72
    65
 73
    61
 74
     0
 42
0.0000000001
 43
0.0000000001
 40
0.0
 40
0.0
 40
0.0
 40
0.0
 40
1.0
 40
1.0
 40
1.0
 40
2.0
 40
2.0
 40
2.0
 40
3.0
 40
3.0
 40
3.0
 40
4.0
 40
4.0
 40
4.0
 40
5.0
 40
5.0
 40
5.0
 40
6.0
 40
6.0
 40
6.0
 40
7.0
 40
7.0
 40
7.0
 40
8.0
 40
8.0
 40
8.0
 40
9.0
 40
9.0
 40
9.0
 40
10.0
 40
10.0
 40
10.0
 40
11.0
 40
11.0
 40
11.0
 40
12.0
 40
12.0
 40
12.0
 40
13.0
 40
13.0
 40
13.0
 40
14.0
 40
14.0
 40
14.0
 40
15.0
 40
15.0
 40
15.0
 40
16.0
 40
16.0
 40
16.0
 40
17.0
 40
17.0
 40
17.0
 40
18.0
 40
18.0
 40
18.0
 40
19.0
 40
19.0
 40
19.0
 40
20.0
 40
20.0
 40
20.0
 40
20.0
 10
202.9999999999991
 20
-196.7627782157997
 30
0.0
 10
191.0
 20
-206.0
 30
0.0
 10
173.0
 20
-207.0
 30
0.0
 10
160.0
 20
-199.0
 30
0.0
 10
153.0
 20
-195.0
 30
0.0
 10
148.0
 20
-187.0
 30
0.0
 10
147.0
 20
-178.0
 30
0.0
 10
147.0
 20
-171.0
 30
0.0
 10
146.0
 20
-164.0
 30
0.0
 10
149.0
 20
-157.0
 30
0.0
 10
155.0
 20
-142.0
 30
0.0
 10
168.0
 20
-130.0
 30
0.0
 10
185.0
 20
-133.0
 30
0.0
 10
206.0
 20
-137.0
 30
0.0
 10
220.0
 20
-160.0
 30
0.0
 10
213.0
 20
-180.0
 30
0.0
 10
211.0
 20
-184.0
 30
0.0
 10
208.0
 20
-187.0
 30
0.0
 10
208.0
 20
-191.0
 30
0.0
 10
208.0
 20
-197.0
 30
0.0
 10
212.0
 20
-202.0
 30
0.0
 10
215.0
 20
-207.0
 30
0.0
 10
220.0
 20
-213.0
 30
0.0
 10
223.0
 20
-219.0
 30
0.0
 10
227.4444444444434
 20
-224.9109263639484
 30
0.0
 10
226.9070791624035
 20
-223.558516117102
 30
0.0
 10
226.2443366284606
 20
-221.7857712473124
 30
0.0
 10
225.0831973079739
 20
-220.907195261997
 30
0.0
 10
225.3992066845076
 20
-222.359836214021
 30
0.0
 10
226.5606451475114
 20
-223.7429232107043
 30
0.0
 10
227.4444444444434
 20
-224.9109263639484
 30
0.0
 10
221.9700581565194
 20
-207.8873630042826
 30
0.0
 10
226.0148328330397
 20
-187.9969666172692
 30
0.0
 10
237.8148148148139
 20
-174.540555993578
 30
0.0
 10
236.3665094049502
 20
-174.1742736019432
 30
0.0
 10
229.6949250208499
 20
-173.5147959824926
 30
0.0
 10
230.7833248533189
 20
-176.9804493891443
 30
0.0
 10
231.8853174471779
 20
-180.4893845001934
 30
0.0
 10
236.9288612619566
 20
-175.6240540352
 30
0.0
 10
237.8148148148139
 20
-174.540555993578
 30
0.0
 10
221.0669333561818
 20
-170.0189878038618
 30
0.0
 10
211.0189947385716
 20
-152.7840536293188
 30
0.0
 10
212.0
 20
-136.0
 30
0.0
 10
226.0
 20
-137.0
 30
0.0
 10
238.0
 20
-128.0
 30
0.0
 10
245.0
 20
-117.0
 30
0.0
 10
247.0
 20
-113.0
 30
0.0
 10
244.0
 20
-109.0
 30
0.0
 10
242.2592592592582
 20
-105.6516671046893
 30
0.0
 10
247.7747105442177
 20
-105.6104655749841
 30
0.0
 10
242.945366599255
 20
-108.7775079299081
 30
0.0
 10
242.2592592592582
 20
-105.6516671046893
 30
0.0
 10
255.0715314641584
 20
-105.0959299835604
 30
0.0
 10
271.0352677794599
 20
-112.3932706822961
 30
0.0
 10
274.304430922718
 20
-125.8349616345285
 30
0.0
 10
274.304430922718
 20
-125.8349616345285
 30
0.0
 10
274.6142879918352
 20
-113.1021208067614
 30
0.0
 10
295.1034402922123
 20
-135.6621715144929
 30
0.0
 10
295.1034402922123
 20
-135.6621715144929
 30
0.0
 10
306.7285789766556
 20
-102.5080896079826
 30
0.0
 10
312.6420672661043
 20
-114.0688596188074
 30
0.0
  0
SPLINE
  5
7D
330
70
100
AcDbEntity
  8
图层 1
 62
   250
420
  2299925
370
    70
100
AcDbSpline
210
0.0
220
0.0
230
1.0
 70
     8
 71
     3
 72
    11
 73
     7
 74
     0
 42
0.0000000001
 43
0.0000000001
 40
0.0
 40
0.0
 40
0.0
 40
0.0
 40
1.0
 40
1.0
 40
1.0
 40
2.0
 40
2.0
 40
2.0
 40
2.0
 10
290.6408107046281
 20
-91.05191541742625
 30
0.0
 10
271.8199861514249
 20
-93.13924648450939
 30
0.0
 10
270.7379391227787
 20
-117.7037330737339
 30
0.0
 10
284.4814814814808
 20
-127.1331485861701
 30
0.0
 10
282.9835390946491
 20
-127.6801325679962
 30
0.0
 10
281.4855967078183
 20
-128.2271165498223
 30
0.0
 10
279.9876543209866
 20
-128.7741005316484
 30
0.0
  0
SPLINE
  5
7E
330
70
100
AcDbEntity
  8
图层 1
 62
   250
420
  2299925
370
    70
100
AcDbSpline
210
0.0
220
0.0
230
1.0
 70
     8
 71
     3
 72
    14
 73
    10
 74
     0
 42
0.0000000001
 43
0.0000000001
 40
0.0
 40
0.0
 40
0.0
 40
0.0
 40
1.0
 40
1.0
 40
1.0
 40
2.0
 40
2.0
 40
2.0
 40
3.0
 40
3.0
 40
3.0
 40
3.0
 10
381.5185241699219
 20
-127.8738861083984
 30
0.0
 10
395.2234191894531
 20
-141.2506713867187
 30
0.0
 10
413.6938171386718
 20
-140.9626617431641
 30
0.0
 10
421.5185241699218
 20
-132.2962951660156
 30
0.0
 10
427.7467346191406
 20
-125.3981399536133
 30
0.0
 10
429.463623046875
 20
-110.7180709838867
 30
0.0
 10
420.7777709960937
 20
-103.4074096679687
 30
0.0
 10
415.2700500488281
 20
-98.77169799804688
 30
0.0
 10
406.7734985351562
 20
-98.10404205322265
 30
0.0
 10
399.0526123046875
 20
-101.555679321289
 30
0.0
  0
LWPOLYLINE
  5
7F
330
70
100
AcDbEntity
  8
图层 1
 62
   250
420
  2299925
370
    70
100
AcDbPolyline
 90
        1
 70
     0
 43
0.0
 10
140.0370370370374
 20
-211.5555555555584
  0
SPLINE
  5
80
330
70
100
AcDbEntity
  8
图层 1
 62
   250
420
  2299925
370
    70
100
AcDbSpline
210
0.0
220
0.0
230
1.0
 70
     9
 71
     3
 72
    11
 73
     7
 74
     0
 42
0.0000000001
 43
0.0000000001
 40
0.0
 40
0.0
 40
0.0
 40
0.0
 40
1.0
 40
1.0
 40
1.0
 40
2.0
 40
2.0
 40
2.0
 40
2.0
 10
175.5925903320312
 20
-378.7777709960938
 30
0.0
 10
169.1473999023437
 20
-378.7777709960938
 30
0.0
 10
169.1580810546884
 20
-368.7777709960938
 30
0.0
 10
175.5925903320312
 20
-368.7777709960938
 30
0.0
 10
182.0377807617187
 20
-368.7777709960938
 30
0.0
 10
182.027099609375
 20
-378.7777709960938
 30
0.0
 10
175.5925903320312
 20
-378.7777709960938
 30
0.0
  0
SPLINE
  5
81
330
70
100
AcDbEntity
  8
图层 1
 62
   250
420
  2299925
370
    70
100
AcDbSpline
210
0.0
220
0.0
230
1.0
 70
     9
 71
     3
 72
    11
 73
     7
 74
     0
 42
0.0000000001
 43
0.0000000001
 40
0.0
 40
0.0
 40
0.0
 40
0.0
 40
1.0
 40
1.0
 40
1.0
 40
2.0
 40
2.0
 40
2.0
 40
2.0
 10
175.5925903320312
 20
-357.6666259765634
 30
0.0
 10
182.0377807617187
 20
-357.6666259765634
 30
0.0
 10
182.027099609375
 20
-367.6666259765634
 30
0.0
 10
175.5925903320312
 20
-367.6666259765634
 30
0.0
 10
169.1473999023437
 20
-367.6666259765634
 30
0.0
 10
169.1580810546884
 20
-357.6666259765634
 30
0.0
 10
175.5925903320312
 20
-357.6666259765634
 30
0.0
  0
SPLINE
  5
82
330
70
100
AcDbEntity
  8
图层 1
 62
   250
420
  2299925
370
    70
100
AcDbSpline
210
0.0
220
0.0
230
1.0
 70
     9
 71
     3
 72
    23
 73
    19
 74
     0
 42
0.0000000001
 43
0.0000000001
 40
0.0
 40
0.0
 40
0.0
 40
0.0
 40
1.0
 40
1.0
 40
1.0
 40
2.0
 40
2.0
 40
2.0
 40
3.0
 40
3.0
 40
3.0
 40
4.0
 40
4.0
 40
4.0
 40
5.0
 40
5.0
 40
5.0
 40
6.0
 40
6.0
 40
6.0
 40
6.0
 10
171.0247192382812
 20
-353.0370483398438
 30
0.0
 10
163.18359375
 20
-353.0370483398438
 30
0.0
 10
156.8271484375
 20
-360.6647338867187
 30
0.0
 10
156.8271484375
 20
-370.0740356445312
 30
0.0
 10
156.8271484375
 20
-378.4368286132813
 30
0.0
 10
161.8522338867187
 20
-385.3781127929687
 30
0.0
 10
168.4741821289062
 20
-386.8218994140634
 30
0.0
 10
166.8208618164062
 20
-383.8673706054688
 30
0.0
 10
168.2092895507812
 20
-379.1481323242188
 30
0.0
 10
172.629638671875
 20
-379.1481323242188
 30
0.0
 10
176.3602294921884
 20
-379.1481323242188
 30
0.0
 10
177.9232177734384
 20
-382.497314453125
 30
0.0
 10
177.3341674804687
 20
-385.3195190429687
 30
0.0
 10
182.0050659179687
 20
-382.530029296875
 30
0.0
 10
185.2222290039062
 20
-376.7599487304687
 30
0.0
 10
185.2222290039062
 20
-370.0740356445312
 30
0.0
 10
185.2222290039062
 20
-360.6647338867187
 30
0.0
 10
178.8657836914062
 20
-353.0370483398438
 30
0.0
 10
171.0247192382812
 20
-353.0370483398438
 30
0.0
  0
CIRCLE
  5
83
330
70
100
AcDbEntity
  8
图层 1
 62
   250
420
  2299925
370
    70
100
AcDbCircle
 10
314.3488703692913
 20
-231.2293888900642
 30
0.0
 40
16.71087037041707
  0
CIRCLE
  5
84
330
70
100
AcDbEntity
  8
图层 1
 62
   250
420
  2299925
370
    70
100
AcDbCircle
 10
277.444444443521
 20
-226.0000000010259
 30
0.0
 40
14.44444444449471
  0
ELLIPSE
  5
85
330
70
100
AcDbEntity
  8
图层 1
 62
   250
420
  2299925
370
    70
100
AcDbEllipse
 10
252.2592592592582
 20
-241.9259259259291
 30
0.0
 11
15.92592592592609
 21
0.0
 31
0.0
210
0.0
220
0.0
230
1.0
 40
0.7906976744186116
 41
0.0
 42
6.283185307179586
  0
ELLIPSE
  5
86
330
70
100
AcDbEntity
  8
图层 1
 62
   250
420
  2299925
370
    70
100
AcDbEllipse
 10
226.3333333333321
 20
-261.5311163020044
 30
0.0
 11
20.37037037037044
 21
0.0
 31
0.0
210
0.0
220
0.0
230
1.0
 40
0.8193815633562977
 41
0.0
 42
6.283185307179586
  0
CIRCLE
  5
87
330
70
100
AcDbEntity
  8
图层 1
 62
   250
420
  2299925
370
    70
100
AcDbCircle
 10
377.0605709867559
 20
-220.4849537047035
 30
0.0
 40
14.06057098770293
  0
CIRCLE
  5
88
330
70
100
AcDbEntity
  8
图层 1
 62
   250
420
  2299925
370
    70
100
AcDbCircle
 10
426.7307098726482
 20
-177.5084876543246
 30
0.0
 40
28.91589505978209
  0
LWPOLYLINE
  5
89
330
70
100
AcDbEntity
  8
图层 1
 62
   250
420
  2299925
370
    25
100
AcDbPolyline
 90
        1
 70
     0
 43
0.0
 10
276.5365340649268
 20
-139.7037037037071
  0
SPLINE
  5
8A
330
70
100
AcDbEntity
  8
图层 1
 62
   250
420
  2299925
370
    25
100
AcDbSpline
210
0.0
220
0.0
230
1.0
 70
     8
 71
     3
 72
    11
 73
     7
 74
     0
 42
0.0000000001
 43
0.0000000001
 40
0.0
 40
0.0
 40
0.0
 40
0.0
 40
1.0
 40
1.0
 40
1.0
 40
2.0
 40
2.0
 40
2.0
 40
2.0
 10
377.0605709867559
 20
-122.6666666666697
 30
0.0
 10
377.0605709867559
 20
-122.6666666666697
 30
0.0
 10
389.6396604920319
 20
-126.3703703703731
 30
0.0
 10
377.0605709867559
 20
-143.4074074074105
 30
0.0
 10
377.0605709867559
 20
-143.4074074074105
 30
0.0
 10
392.7197415285045
 20
-131.3212638174791
 30
0.0
 10
405.6376485420296
 20
-157.7347059828153
 30
0.0
  0
ELLIPSE
  5
8B
330
70
100
AcDbEntity
  8
图层 1
 62
   250
420
  2299925
370
    70
100
AcDbEllipse
 10
437.1010802430178
 20
-409.459795720978
 30
0.0
 11
0.0000000000000017
 21
28.27461053579009
 31
0.0
210
0.0
220
0.0
230
1.0
 40
0.6559073435861505
 41
0.0
 42
6.283185307179586
  0
ELLIPSE
  5
8C
330
70
100
AcDbEntity
  8
图层 1
 62
   250
420
  2299925
370
    70
100
AcDbEllipse
 10
434.8653549363243
 20
-410.8148148148184
 30
0.0
 11
0.0000000000000008
 21
13.33333333333303
 31
0.0
210
0.0
220
0.0
230
1.0
 40
0.6100983797756865
 41
0.0
 42
6.283185307179586
  0
ELLIPSE
  5
8D
330
70
100
AcDbEntity
  8
图层 1
 62
   250
420
  2299925
370
    25
100
AcDbEllipse
 10
344.0343817333728
 20
-181.5555555555586
 30
0.0
 11
0.000000000000002
 21
32.96296296296328
 31
0.0
210
0.0
220
0.0
230
1.0
 40
0.6156497829225912
 41
0.0
 42
6.283185307179586
  0
ELLIPSE
  5
8E
330
70
100
AcDbEntity
  8
图层 1
 62
   250
420
  2299925
370
    25
100
AcDbEllipse
 10
343.7407407407404
 20
-178.9629629629662
 30
0.0
 11
0.0000000000000022
 21
35.55555555555566
 31
0.0
210
0.0
220
0.0
230
1.0
 40
0.7500000000000192
 41
0.0
 42
6.283185307179586
  0
SPLINE
  5
8F
330
70
100
AcDbEntity
  8
图层 1
 62
   250
420
  2299925
370
    70
100
AcDbSpline
210
0.0
220
0.0
230
1.0
 70
     8
 71
     3
 72
    11
 73
     7
 74
     0
 42
0.0000000001
 43
0.0000000001
 40
0.0
 40
0.0
 40
0.0
 40
0.0
 40
1.0
 40
1.0
 40
1.0
 40
2.0
 40
2.0
 40
2.0
 40
2.0
 10
210.6457311625609
 20
-373.2125618661576
 30
0.0
 10
210.6457311625609
 20
-373.2125618661576
 30
0.0
 10
268.4235089403391
 20
-297.1415759988531
 30
0.0
 10
344.7198052366348
 20
-301.3539685794139
 30
0.0
 10
344.7198052366348
 20
-301.3539685794139
 30
0.0
 10
406.1919121850624
 20
-312.8347852406787
 30
0.0
 10
411.3864719033008
 20
-366.3071019007157
 30
0.0
  0
SPLINE
  5
90
330
70
100
AcDbEntity
  8
图层 1
 62
   250
420
  2299925
370
    35
100
AcDbSpline
210
0.0
220
0.0
230
1.0
 70
     8
 71
     3
 72
    29
 73
    25
 74
     0
 42
0.0000000001
 43
0.0000000001
 40
0.0
 40
0.0
 40
0.0
 40
0.0
 40
1.0
 40
1.0
 40
1.0
 40
2.0
 40
2.0
 40
2.0
 40
3.0
 40
3.0
 40
3.0
 40
4.0
 40
4.0
 40
4.0
 40
5.0
 40
5.0
 40
5.0
 40
6.0
 40
6.0
 40
6.0
 40
7.0
 40
7.0
 40
7.0
 40
8.0
 40
8.0
 40
8.0
 40
8.0
 10
418.5555555555547
 20
-361.9259259259288
 30
0.0
 10
415.4011927298633
 20
-298.6141818904889
 30
0.0
 10
344.0343817333742
 20
-296.7407407407436
 30
0.0
 10
344.0343817333742
 20
-296.7407407407436
 30
0.0
 10
298.4020968000823
 20
-285.6296296296323
 30
0.0
 10
214.1111111111104
 20
-358.2222222222254
 30
0.0
 10
214.1111111111104
 20
-358.2222222222254
 30
0.0
 10
214.1111111111104
 20
-358.2222222222254
 30
0.0
 10
215.5925925925922
 20
-379.9566284789898
 30
0.0
 10
214.1111111111104
 20
-399.8301660913494
 30
0.0
 10
214.1111111111104
 20
-399.8301660913494
 30
0.0
 10
221.3316627280756
 20
-424.1481481481514
 30
0.0
 10
221.3316627280756
 20
-424.1481481481514
 30
0.0
 10
221.3316627280756
 20
-424.1481481481514
 30
0.0
 10
231.1481481481478
 20
-431.7797186563548
 30
0.0
 10
231.1481481481478
 20
-431.7797186563548
 30
0.0
 10
231.1481481481478
 20
-431.7797186563548
 30
0.0
 10
240.7977371215275
 20
-471.9206752716836
 30
0.0
 10
240.7977371215275
 20
-471.9206752716836
 30
0.0
 10
240.7977371215275
 20
-471.9206752716836
 30
0.0
 10
259.5423009332908
 20
-490.8148148148175
 30
0.0
 10
259.5423009332908
 20
-490.8148148148175
 30
0.0
 10
259.5423009332908
 20
-490.8148148148175
 30
0.0
 10
255.1393832298081
 20
-512.2962962962993
 30
0.0
 10
255.1393832298081
 20
-512.2962962962993
 30
0.0
  0
ELLIPSE
  5
91
330
70
100
AcDbEntity
  8
图层 1
 62
   250
420
  2299925
370
    25
100
AcDbEllipse
 10
231.9881605716357
 20
-331.2459345892557
 30
0.0
 11
8.988160571636626
 21
0.0
 31
0.0
210
0.0
220
0.0
230
1.0
 40
0.6860887914271511
 41
0.0
 42
6.283185307179586
  0
ELLIPSE
  5
92
330
70
100
AcDbEntity
  8
图层 1
 62
   250
420
  2299925
370
    25
100
AcDbEllipse
 10
262.4444444444435
 20
-310.1901000060188
 30
0.0
 11
10.18518518518522
 21
0.0
 31
0.0
210
0.0
220
0.0
230
1.0
 40
0.7886083630457282
 41
0.0
 42
6.283185307179586
  0
ELLIPSE
  5
93
330
70
100
AcDbEntity
  8
图层 1
 62
   250
420
  2299925
370
    25
100
AcDbEllipse
 10
298.9259259250021
 20
-288.2222222222253
 30
0.0
 11
0.0000000000000006
 21
10.0
 31
0.0
210
0.0
220
0.0
230
1.0
 40
0.7037037037959636
 41
0.0
 42
6.283185307179586
  0
CIRCLE
  5
94
330
70
100
AcDbEntity
  8
图层 1
 62
   250
420
  2299925
370
    25
100
AcDbCircle
 10
347.0298703692915
 20
-277.501245934865
 30
0.0
 40
15.97012963178372
  0
CIRCLE
  5
95
330
70
100
AcDbEntity
  8
图层 1
 62
   250
420
  2299925
370
    25
100
AcDbCircle
 10
387.0049148198918
 20
-295.1901000060189
 30
0.0
 40
6.96787778332441
  0
CIRCLE
  5
96
330
70
100
AcDbEntity
  8
图层 1
 62
   250
420
  2299925
370
    25
100
AcDbCircle
 10
405.9754005994368
 20
-315.3877228283789
 30
0.0
 40
5.19762282200952
  0
ELLIPSE
  5
97
330
70
100
AcDbEntity
  8
图层 1
 62
   250
420
  2299925
370
    35
100
AcDbEllipse
 10
414.8642894883264
 20
-340.6742168836165
 30
0.0
 11
0.0000000000000004
 21
7.032857789813306
 31
0.0
210
0.0
220
0.0
230
1.0
 40
0.5248600465909884
 41
0.0
 42
6.283185307179585
  0
ELLIPSE
  5
98
330
70
100
AcDbEntity
  8
图层 1
 62
   250
420
  2299925
370
    70
100
AcDbEllipse
 10
398.9259259259238
 20
-252.6801697540852
 30
0.0
 11
-3.655398420336311
 21
17.76241576665104
 31
0.0
210
0.0
220
0.0
230
1.0
 40
0.8373577279473064
 41
0.0
 42
6.283185307179586
  0
CIRCLE
  5
99
330
70
100
AcDbEntity
  8
图层 1
 62
   250
420
  2299925
370
    70
100
AcDbCircle
 10
430.8938037075567
 20
-286.1160259319452
 30
0.0
 40
16.04195185678679
  0
CIRCLE
  5
9A
330
70
100
AcDbEntity
  8
图层 1
 62
   250
420
  2299925
370
    35
100
AcDbCircle
 10
444.8002153294765
 20
-324.0965116298114
 30
0.0
 40
13.90641162285635
  0
ELLIPSE
  5
9B
330
70
100
AcDbEntity
  8
图层 1
 62
   250
420
  2299925
370
    35
100
AcDbEllipse
 10
453.4761188549619
 20
-359.223690630708
 30
0.0
 11
17.29138147762751
 21
0.0
 31
0.0
210
0.0
220
0.0
230
1.0
 40
0.8667425191320594
 41
0.0
 42
6.283185307179586
  0
LWPOLYLINE
  5
9C
330
70
100
AcDbEntity
  8
图层 1
 62
   250
420
  2299925
370
    35
100
AcDbPolyline
 90
        3
 70
     0
 43
0.0
 10
312.6420672661043
 20
-456.7407407407444
 10
331.0597407385831
 20
-476.7407407407445
 10
336.3333435058594
 20
-490.8148148148175
  0
LWPOLYLINE
  5
9D
330
70
100
AcDbEntity
  8
图层 1
 62
   250
420
  2299925
370
    35
100
AcDbPolyline
 90
        4
 70
     0
 43
0.0
 10
222.4530328564588
 20
-358.9629629629653
 10
248.3789587823849
 20
-430.0740740740766
 10
248.3789587823849
 20
-462.6666666666697
 10
278.3395352214111
 20
-479.7037037037061
  0
SPLINE
  5
9E
330
70
100
AcDbEntity
  8
图层 1
 62
   250
420
  2299925
370
   106
100
AcDbSpline
210
0.0
220
0.0
230
1.0
 70
     8
 71
     3
 72
    38
 73
    34
 74
     0
 42
0.0000000001
 43
0.0000000001
 40
0.0
 40
0.0
 40
0.0
 40
0.0
 40
1.0
 40
1.0
 40
1.0
 40
2.0
 40
2.0
 40
2.0
 40
3.0
 40
3.0
 40
3.0
 40
4.0
 40
4.0
 40
4.0
 40
5.0
 40
5.0
 40
5.0
 40
6.0
 40
6.0
 40
6.0
 40
7.0
 40
7.0
 40
7.0
 40
8.0
 40
8.0
 40
8.0
 40
9.0
 40
9.0
 40
9.0
 40
10.0
 40
10.0
 40
10.0
 40
11.0
 40
11.0
 40
11.0
 40
11.0
 10
222.1168511898686
 20
-460.0625807634842
 30
0.0
 10
222.1168511898686
 20
-460.0625807634842
 30
0.0
 10
246.747590892629
 20
-507.4699881708929
 30
0.0
 10
246.747590892629
 20
-507.4699881708929
 30
0.0
 10
246.747590892629
 20
-507.4699881708929
 30
0.0
 10
258.0409657339233
 20
-516.3588770597816
 30
0.0
 10
258.0409657339233
 20
-516.3588770597816
 30
0.0
 10
258.0409657339233
 20
-516.3588770597816
 30
0.0
 10
271.9495664032993
 20
-505.9885066894111
 30
0.0
 10
271.9495664032993
 20
-505.9885066894111
 30
0.0
 10
271.9495664032993
 20
-505.9885066894111
 30
0.0
 10
271.9495664032993
 20
-495.6181363190408
 30
0.0
 10
271.9495664032993
 20
-495.6181363190408
 30
0.0
 10
271.9495664032993
 20
-495.6181363190408
 30
0.0
 10
274.1717886255219
 20
-492.6551733560772
 30
0.0
 10
256.0236404773732
 20
-473.3959140968181
 30
0.0
 10
237.8754923292254
 20
-454.136654837559
 30
0.0
 10
221.4596169944298
 20
-389.6922103931156
 30
0.0
 10
221.4596169944298
 20
-389.6922103931156
 30
0.0
 10
221.4596169944298
 20
-389.6922103931156
 30
0.0
 10
217.8754923292254
 20
-380.8033215042251
 30
0.0
 10
217.8754923292254
 20
-380.8033215042251
 30
0.0
 10
217.8754923292254
 20
-380.8033215042251
 30
0.0
 10
272.6903071440402
 20
-300.803321504226
 30
0.0
 10
351.2088256625575
 20
-309.6922103931156
 30
0.0
 10
351.2088256625575
 20
-309.6922103931156
 30
0.0
 10
416.3940108477436
 20
-319.0586858795559
 30
0.0
 10
414.9125293662619
 20
-373.634707395594
 30
0.0
 10
414.9125293662619
 20
-373.634707395594
 30
0.0
 10
413.5332410813971
 20
-390.2907526107701
 30
0.0
 10
413.5332410813971
 20
-390.2907526107701
 30
0.0
 10
413.5332410813971
 20
-390.2907526107701
 30
0.0
 10
414.937404639213
 20
-400.5191401447882
 30
0.0
 10
414.937404639213
 20
-400.5191401447882
 30
0.0
  0
SPLINE
  5
9F
330
70
100
AcDbEntity
  8
图层 1
 62
   250
420
  2299925
370
    35
100
AcDbSpline
210
0.0
220
0.0
230
1.0
 70
     8
 71
     3
 72
     8
 73
     4
 74
     0
 42
0.0000000001
 43
0.0000000001
 40
0.0
 40
0.0
 40
0.0
 40
0.0
 40
1.0
 40
1.0
 40
1.0
 40
1.0
 10
221.3316627280756
 20
-399.9906563411232
 30
0.0
 10
219.2911804725099
 20
-400.8308633054594
 30
0.0
 10
218.3519374588887
 20
-403.6249893932335
 30
0.0
 10
219.4705807839018
 20
-405.5271336279329
 30
0.0
  0
SPLINE
  5
A0
330
70
100
AcDbEntity
  8
图层 1
 62
   250
420
  2299925
370
    35
100
AcDbSpline
210
0.0
220
0.0
230
1.0
 70
     8
 71
     3
 72
    44
 73
    40
 74
     0
 42
0.0000000001
 43
0.0000000001
 40
0.0
 40
0.0
 40
0.0
 40
0.0
 40
1.0
 40
1.0
 40
1.0
 40
2.0
 40
2.0
 40
2.0
 40
3.0
 40
3.0
 40
3.0
 40
4.0
 40
4.0
 40
4.0
 40
5.0
 40
5.0
 40
5.0
 40
6.0
 40
6.0
 40
6.0
 40
7.0
 40
7.0
 40
7.0
 40
8.0
 40
8.0
 40
8.0
 40
9.0
 40
9.0
 40
9.0
 40
10.0
 40
10.0
 40
10.0
 40
11.0
 40
11.0
 40
11.0
 40
12.0
 40
12.0
 40
12.0
 40
13.0
 40
13.0
 40
13.0
 40
13.0
 10
185.2222222222217
 20
-467.8518518518558
 30
0.0
 10
185.2222222222217
 20
-467.8518518518558
 30
0.0
 10
166.6361724933558
 20
-714.5185185185218
 30
0.0
 10
166.6361724933558
 20
-714.5185185185218
 30
0.0
 10
166.6361724933558
 20
-714.5185185185218
 30
0.0
 10
268.1851851851843
 20
-756.0000000000036
 30
0.0
 10
268.1851851851843
 20
-756.0000000000036
 30
0.0
 10
268.1851851851843
 20
-756.0000000000036
 30
0.0
 10
309.666666666666
 20
-764.1481481481514
 30
0.0
 10
309.666666666666
 20
-764.1481481481514
 30
0.0
 10
309.666666666666
 20
-764.1481481481514
 30
0.0
 10
407.110105166892
 20
-732.2962962962992
 30
0.0
 10
407.110105166892
 20
-732.2962962962992
 30
0.0
 10
407.110105166892
 20
-732.2962962962992
 30
0.0
 10
464.4286144117322
 20
-670.0740740740766
 30
0.0
 10
464.4286144117322
 20
-670.0740740740766
 30
0.0
 10
464.4286144117322
 20
-670.0740740740766
 30
0.0
 10
447.4444444444397
 20
-541.9259259259306
 30
0.0
 10
398.9259259259234
 20
-467.8518518518558
 30
0.0
 10
398.9259259259234
 20
-467.8518518518558
 30
0.0
 10
380.0370370370365
 20
-516.7407407407445
 30
0.0
 10
380.0370370370365
 20
-516.7407407407445
 30
0.0
 10
380.0370370370365
 20
-516.7407407407445
 30
0.0
 10
360.0370370370365
 20
-504.1481481481514
 30
0.0
 10
360.0370370370365
 20
-504.1481481481514
 30
0.0
 10
360.0370370370365
 20
-504.1481481481514
 30
0.0
 10
343.7407407407409
 20
-511.5555555555584
 30
0.0
 10
343.7407407407409
 20
-511.5555555555584
 30
0.0
 10
333.3703703703723
 20
-501.1851851851879
 30
0.0
 10
320.0370370370365
 20
-502.6666666666697
 30
0.0
 10
314.348870369291
 20
-498.9629629629653
 30
0.0
 10
308.6607037015456
 20
-495.2592592592609
 30
0.0
 10
252.2592592592582
 20
-531.5555555555583
 30
0.0
 10
252.2592592592582
 20
-531.5555555555583
 30
0.0
 10
252.2592592592582
 20
-531.5555555555583
 30
0.0
 10
240.976321143271
 20
-521.9259259259287
 30
0.0
 10
240.976321143271
 20
-521.9259259259287
 30
0.0
 10
240.976321143271
 20
-521.9259259259287
 30
0.0
 10
214.1111111111104
 20
-439.1990448636279
 30
0.0
 10
214.1111111111104
 20
-439.1990448636279
 30
0.0
  0
HATCH
  5
A1
330
70
100
AcDbEntity
  8
图层 1
440
 33554687
100
AcDbHatch
 10
0.0
 20
0.0
 30
0.0
210
0.0
220
0.0
230
1.0
  2
SOLID
 70
     1
 71
     1
 91
        1
 92
        1
 93
        2
 72
     4
 94
        3
 73
     0
 74
     0
 95
       44
 96
       40
 40
0.0
 40
0.0
 40
0.0
 40
0.0
 40
1.0
 40
1.0
 40
1.0
 40
2.0
 40
2.0
 40
2.0
 40
3.0
 40
3.0
 40
3.0
 40
4.0
 40
4.0
 40
4.0
 40
5.0
 40
5.0
 40
5.0
 40
6.0
 40
6.0
 40
6.0
 40
7.0
 40
7.0
 40
7.0
 40
8.0
 40
8.0
 40
8.0
 40
9.0
 40
9.0
 40
9.0
 40
10.0
 40
10.0
 40
10.0
 40
11.0
 40
11.0
 40
11.0
 40
12.0
 40
12.0
 40
12.0
 40
13.0
 40
13.0
 40
13.0
 40
13.0
 10
185.2222222222217
 20
-467.8518518518558
 10
185.2222222222217
 20
-467.8518518518558
 10
166.6361724933558
 20
-714.5185185185218
 10
166.6361724933558
 20
-714.5185185185218
 10
166.6361724933558
 20
-714.5185185185218
 10
268.1851851851843
 20
-756.0000000000036
 10
268.1851851851843
 20
-756.0000000000036
 10
268.1851851851843
 20
-756.0000000000036
 10
309.666666666666
 20
-764.1481481481514
 10
309.666666666666
 20
-764.1481481481514
 10
309.666666666666
 20
-764.1481481481514
 10
407.110105166892
 20
-732.2962962962992
 10
407.110105166892
 20
-732.2962962962992
 10
407.110105166892
 20
-732.2962962962992
 10
464.4286144117322
 20
-670.0740740740766
 10
464.4286144117322
 20
-670.0740740740766
 10
464.4286144117322
 20
-670.0740740740766
 10
447.4444444444397
 20
-541.9259259259306
 10
398.9259259259234
 20
-467.8518518518558
 10
398.9259259259234
 20
-467.8518518518558
 10
380.0370370370365
 20
-516.7407407407445
 10
380.0370370370365
 20
-516.7407407407445
 10
380.0370370370365
 20
-516.7407407407445
 10
360.0370370370365
 20
-504.1481481481514
 10
360.0370370370365
 20
-504.1481481481514
 10
360.0370370370365
 20
-504.1481481481514
 10
343.7407407407409
 20
-511.5555555555584
 10
343.7407407407409
 20
-511.5555555555584
 10
333.3703703703723
 20
-501.1851851851879
 10
320.0370370370365
 20
-502.6666666666697
 10
314.348870369291
 20
-498.9629629629653
 10
308.6607037015456
 20
-495.2592592592609
 10
252.2592592592582
 20
-531.5555555555583
 10
252.2592592592582
 20
-531.5555555555583
 10
252.2592592592582
 20
-531.5555555555583
 10
240.976321143271
 20
-521.9259259259287
 10
240.976321143271
 20
-521.9259259259287
 10
240.976321143271
 20
-521.9259259259287
 10
214.1111111111104
 20
-439.1990448636279
 10
214.1111111111104
 20
-439.1990448636279
 97
        0
 72
     1
 10
214.1111111111104
 20
-439.1990448636279
 11
185.2222222222217
 21
-467.8518518518558
 97
        0
 75
     2
 76
     0
 98
        1
 10
0.0
 20
0.0
450
        1
451
        0
460
0.0
461
0.0
452
        0
462
0.0
453
        2
463
0.0
 63
     7
421
 16777215
463
1.0
 63
    18
421
        0
470
LINEAR
  0
LINE
  5
A2
330
70
100
AcDbEntity
  8
图层 1
 62
   250
420
  2299925
370
    35
100
AcDbLine
 10
205.9629629629617
 20
-453.4074074074105
 30
0.0
 11
217.6952357763148
 21
-548.5925925925949
 31
0.0
  0
SPLINE
  5
A3
330
70
100
AcDbEntity
  8
图层 1
 62
   250
420
  2299925
370
    35
100
AcDbSpline
210
0.0
220
0.0
230
1.0
 70
     8
 71
     3
 72
     8
 73
     4
 74
     0
 42
0.0000000001
 43
0.0000000001
 40
0.0
 40
0.0
 40
0.0
 40
0.0
 40
1.0
 40
1.0
 40
1.0
 40
1.0
 10
211.8290993696382
 20
-564.1481481481514
 30
0.0
 10
211.8290993696382
 20
-564.1481481481514
 30
0.0
 10
214.8518518518504
 20
-661.9259259259306
 30
0.0
 10
205.9629629629617
 20
-698.2222222222262
 30
0.0
  0
SPLINE
  5
A4
330
70
100
AcDbEntity
  8
图层 1
 62
   250
420
  2299925
370
    35
100
AcDbSpline
210
0.0
220
0.0
230
1.0
 70
     8
 71
     3
 72
     8
 73
     4
 74
     0
 42
0.0000000001
 43
0.0000000001
 40
0.0
 40
0.0
 40
0.0
 40
0.0
 40
1.0
 40
1.0
 40
1.0
 40
1.0
 10
252.2592592592582
 20
-584.8888888888922
 30
0.0
 10
252.2592592592582
 20
-584.8888888888922
 30
0.0
 10
285.2222222203764
 20
-653.777777777781
 30
0.0
 10
277.4444444435212
 20
-724.1481481481514
 30
0.0
  0
SPLINE
  5
A5
330
70
100
AcDbEntity
  8
图层 1
 62
   250
420
  2299925
370
    35
100
AcDbSpline
210
0.0
220
0.0
230
1.0
 70
     8
 71
     3
 72
     8
 73
     4
 74
     0
 42
0.0000000001
 43
0.0000000001
 40
0.0
 40
0.0
 40
0.0
 40
0.0
 40
1.0
 40
1.0
 40
1.0
 40
1.0
 10
308.9259259259252
 20
-512.2962962962993
 30
0.0
 10
308.9259259259252
 20
-512.2962962962993
 30
0.0
 10
357.8148148148139
 20
-585.6296296296331
 30
0.0
 10
340.0370370370365
 20
-715.2592592592627
 30
0.0
  0
SPLINE
  5
A6
330
70
100
AcDbEntity
  8
图层 1
 62
   250
420
  2299925
370
    35
100
AcDbSpline
210
0.0
220
0.0
230
1.0
 70
     8
 71
     3
 72
     8
 73
     4
 74
     0
 42
0.0000000001
 43
0.0000000001
 40
0.0
 40
0.0
 40
0.0
 40
0.0
 40
1.0
 40
1.0
 40
1.0
 40
1.0
 10
383.7407407407391
 20
-516.7407407407445
 30
0.0
 10
383.7407407407391
 20
-516.7407407407445
 30
0.0
 10
423.0540123378905
 20
-574.5185185185219
 30
0.0
 10
426.7307098726487
 20
-621.1851851851879
 30
0.0
  0
SPLINE
  5
A7
330
70
100
AcDbEntity
  8
图层 1
 62
   250
420
  2299925
370
    35
100
AcDbSpline
210
0.0
220
0.0
230
1.0
 70
     8
 71
     3
 72
     8
 73
     4
 74
     0
 42
0.0000000001
 43
0.0000000001
 40
0.0
 40
0.0
 40
0.0
 40
0.0
 40
1.0
 40
1.0
 40
1.0
 40
1.0
 10
411.1730234210972
 20
-537.4814814814853
 30
0.0
 10
411.1730234210972
 20
-537.4814814814853
 30
0.0
 10
450.353203975832
 20
-627.0946791480855
 30
0.0
 10
434.8653549363243
 20
-673.0370370370401
 30
0.0
  0
LWPOLYLINE
  5
A8
330
70
100
AcDbEntity
  8
图层 1
 62
   250
420
  2299925
370
    35
100
AcDbPolyline
 90
        1
 70
     0
 43
0.0
 10
282.2198356982844
 20
-324.0965116298112
  0
SPLINE
  5
A9
330
70
100
AcDbEntity
  8
图层 1
 62
   250
420
  2299925
370
    35
100
AcDbSpline
210
0.0
220
0.0
230
1.0
 70
     8
 71
     3
 72
    17
 73
    13
 74
     0
 42
0.0000000001
 43
0.0000000001
 40
0.0
 40
0.0
 40
0.0
 40
0.0
 40
1.0
 40
1.0
 40
1.0
 40
2.0
 40
2.0
 40
2.0
 40
3.0
 40
3.0
 40
3.0
 40
4.0
 40
4.0
 40
4.0
 40
4.0
 10
283.4905663032714
 20
-322.6237313726078
 30
0.0
 10
283.4905663032714
 20
-322.6237313726078
 30
0.0
 10
330.3851290270759
 20
-371.5126202614984
 30
0.0
 10
327.698300186401
 20
-394.5014014836306
 30
0.0
 10
327.698300186401
 20
-394.5014014836306
 30
0.0
 10
318.34480467906
 20
-398.357385834146
 30
0.0
 10
318.34480467906
 20
-398.357385834146
 30
0.0
 10
318.34480467906
 20
-398.357385834146
 30
0.0
 10
302.7892491216608
 20
-380.9307322662771
 30
0.0
 10
278.7151750485082
 20
-372.5437908193544
 30
0.0
 10
254.6411009753574
 20
-364.1568493724299
 30
0.0
 10
242.8649615758386
 20
-368.6012938168733
 30
0.0
 10
242.8649615758386
 20
-368.6012938168733
 30
0.0
  0
SPLINE
  5
AA
330
70
100
AcDbEntity
  8
图层 1
 62
   250
420
  2299925
370
    35
100
AcDbSpline
210
0.0
220
0.0
230
1.0
 70
     8
 71
     3
 72
    14
 73
    10
 74
     0
 42
0.0000000001
 43
0.0000000001
 40
0.0
 40
0.0
 40
0.0
 40
0.0
 40
1.0
 40
1.0
 40
1.0
 40
2.0
 40
2.0
 40
2.0
 40
3.0
 40
3.0
 40
3.0
 40
3.0
 10
333.2915232484193
 20
-384.1481481481515
 30
0.0
 10
333.2915232484193
 20
-384.1481481481515
 30
0.0
 10
339.2962962962956
 20
-409.459795720978
 30
0.0
 10
339.2962962962956
 20
-409.459795720978
 30
0.0
 10
339.2962962962956
 20
-409.459795720978
 30
0.0
 10
333.2915232484193
 20
-410.8148148148184
 30
0.0
 10
333.2915232484193
 20
-410.8148148148184
 30
0.0
 10
333.2915232484193
 20
-410.8148148148184
 30
0.0
 10
347.4444444444452
 20
-423.4074074074087
 30
0.0
 10
320.0370370370365
 20
-410.8148148148184
 30
0.0
  0
LWPOLYLINE
  5
AB
330
70
100
AcDbEntity
  8
图层 1
 62
   250
420
  2299925
370
    35
100
AcDbPolyline
 90
        1
 70
     0
 43
0.0
 10
339.2962962962956
 20
-395.974181740834
  0
LWPOLYLINE
  5
AC
330
70
100
AcDbEntity
  8
图层 1
 62
   250
420
  2299925
370
    35
100
AcDbPolyline
 90
        3
 70
     0
 43
0.0
 10
357.074074074073
 20
-390.0740740740785
 10
352.6296296296296
 20
-375.2592592592628
 10
339.2962962962956
 20
-395.974181740834
  0
SPLINE
  5
AD
330
70
100
AcDbEntity
  8
图层 1
 62
   250
420
  2299925
370
    35
100
AcDbSpline
210
0.0
220
0.0
230
1.0
 70
     8
 71
     3
 72
    14
 73
    10
 74
     0
 42
0.0000000001
 43
0.0000000001
 40
0.0
 40
0.0
 40
0.0
 40
0.0
 40
1.0
 40
1.0
 40
1.0
 40
2.0
 40
2.0
 40
2.0
 40
3.0
 40
3.0
 40
3.0
 40
3.0
 10
352.6296296296296
 20
-375.2592592592628
 30
0.0
 10
352.6296296296296
 20
-375.2592592592628
 30
0.0
 10
353.3703703703686
 20
-395.974181740834
 30
0.0
 10
353.3703703703686
 20
-395.974181740834
 30
0.0
 10
356.3333333333303
 20
-427.8002153335164
 30
0.0
 10
333.2915232484193
 20
-501.0000000000036
 30
0.0
 10
333.2915232484193
 20
-501.0000000000036
 30
0.0
 10
333.2915232484193
 20
-501.0000000000036
 30
0.0
 10
347.0298703692915
 20
-505.6296296296332
 30
0.0
 10
347.0298703692915
 20
-505.6296296296332
 30
0.0
  0
LINE
  5
AE
330
70
100
AcDbEntity
  8
图层 1
 62
   250
420
  2299925
370
    35
100
AcDbLine
 10
360.0370370370365
 20
-504.1481481481514
 30
0.0
 11
350.7299833267953
 21
-430.444444444447
 31
0.0
  0
SPLINE
  5
AF
330
70
100
AcDbEntity
  8
图层 1
 62
   250
420
  2299925
370
    35
100
AcDbSpline
210
0.0
220
0.0
230
1.0
 70
     8
 71
     3
 72
    65
 73
    61
 74
     0
 42
0.0000000001
 43
0.0000000001
 40
0.0
 40
0.0
 40
0.0
 40
0.0
 40
1.0
 40
1.0
 40
1.0
 40
2.0
 40
2.0
 40
2.0
 40
3.0
 40
3.0
 40
3.0
 40
4.0
 40
4.0
 40
4.0
 40
5.0
 40
5.0
 40
5.0
 40
6.0
 40
6.0
 40
6.0
 40
7.0
 40
7.0
 40
7.0
 40
8.0
 40
8.0
 40
8.0
 40
9.0
 40
9.0
 40
9.0
 40
10.0
 40
10.0
 40
10.0
 40
11.0
 40
11.0
 40
11.0
 40
12.0
 40
12.0
 40
12.0
 40
13.0
 40
13.0
 40
13.0
 40
14.0
 40
14.0
 40
14.0
 40
15.0
 40
15.0
 40
15.0
 40
16.0
 40
16.0
 40
16.0
 40
17.0
 40
17.0
 40
17.0
 40
18.0
 40
18.0
 40
18.0
 40
19.0
 40
19.0
 40
19.0
 40
20.0
 40
20.0
 40
20.0
 40
20.0
 10
288.6548323245652
 20
-387.1111111111141
 30
0.0
 10
288.6548323245652
 20
-387.1111111111141
 30
0.0
 10
326.538768787872
 20
-420.9449999999996
 30
0.0
 10
326.538768787872
 20
-420.9449999999996
 30
0.0
 10
326.538768787872
 20
-420.9449999999996
 30
0.0
 10
336.3333435058594
 20
-424.1481481481514
 30
0.0
 10
336.3333435058594
 20
-424.1481481481514
 30
0.0
 10
336.3333435058594
 20
-424.1481481481514
 30
0.0
 10
326.538768787872
 20
-430.444444444447
 30
0.0
 10
326.538768787872
 20
-430.444444444447
 30
0.0
 10
326.538768787872
 20
-430.444444444447
 30
0.0
 10
240.976321143271
 20
-374.0165710765568
 30
0.0
 10
240.976321143271
 20
-374.0165710765568
 30
0.0
 10
240.976321143271
 20
-374.0165710765568
 30
0.0
 10
231.1481481481478
 20
-381.185185185188
 30
0.0
 10
231.1481481481478
 20
-381.185185185188
 30
0.0
 10
231.1481481481478
 20
-381.185185185188
 30
0.0
 10
246.7037037037026
 20
-405.5271336279329
 30
0.0
 10
246.7037037037026
 20
-405.5271336279329
 30
0.0
 10
256.3657553732246
 20
-411.6088047451767
 30
0.0
 10
254.2765845158083
 20
-402.2305077605023
 30
0.0
 10
254.2765845158083
 20
-402.2305077605023
 30
0.0
 10
254.2765845158083
 20
-402.2305077605023
 30
0.0
 10
262.4444444444435
 20
-424.1481481481514
 30
0.0
 10
262.4444444444435
 20
-424.1481481481514
 30
0.0
 10
262.4444444444435
 20
-424.1481481481514
 30
0.0
 10
277.4444444435212
 20
-440.4444444444489
 30
0.0
 10
277.4444444435212
 20
-440.4444444444489
 30
0.0
 10
277.4444444435212
 20
-440.4444444444489
 30
0.0
 10
308.9259259259252
 20
-447.8518518518558
 30
0.0
 10
308.9259259259252
 20
-447.8518518518558
 30
0.0
 10
308.9259259259252
 20
-447.8518518518558
 30
0.0
 10
331.0597407385831
 20
-467.8518518518558
 30
0.0
 10
331.0597407385831
 20
-467.8518518518558
 30
0.0
 10
331.0597407385831
 20
-467.8518518518558
 30
0.0
 10
312.6420672661043
 20
-450.9462669751574
 30
0.0
 10
312.6420672661043
 20
-450.9462669751574
 30
0.0
 10
312.6420672661043
 20
-450.9462669751574
 30
0.0
 10
282.2198356982844
 20
-450.9462669751574
 30
0.0
 10
282.2198356982844
 20
-450.9462669751574
 30
0.0
 10
282.2198356982844
 20
-450.9462669751574
 30
0.0
 10
246.7037037037026
 20
-426.3703703703741
 30
0.0
 10
246.7037037037026
 20
-426.3703703703741
 30
0.0
 10
246.7037037037026
 20
-426.3703703703741
 30
0.0
 10
231.1481481481478
 20
-381.185185185188
 30
0.0
 10
231.1481481481478
 20
-381.185185185188
 30
0.0
 10
231.1481481481478
 20
-381.185185185188
 30
0.0
 10
231.1481481481478
 20
-381.185185185188
 30
0.0
 10
240.976321143271
 20
-374.0165710765568
 30
0.0
 10
250.8044941383941
 20
-366.8479569679257
 30
0.0
 10
268.1851851851843
 20
-370.0740740740766
 30
0.0
 10
268.1851851851843
 20
-370.0740740740766
 30
0.0
 10
268.1851851851843
 20
-370.0740740740766
 30
0.0
 10
314.4814814814799
 20
-403.4074074074105
 30
0.0
 10
314.4814814814799
 20
-403.4074074074105
 30
0.0
 10
342.2592592592573
 20
-413.7777777777809
 30
0.0
 10
331.0597407385831
 20
-393.777777777781
 30
0.0
 10
331.0597407385831
 20
-393.777777777781
 30
0.0
 10
334.6750370327227
 20
-367.8518518518549
 30
0.0
 10
288.1851851851843
 20
-324.0965116298112
 30
0.0
 10
288.1851851851843
 20
-324.0965116298112
 30
0.0
  0
LWPOLYLINE
  5
B0
330
70
100
AcDbEntity
  8
图层 1
 62
   250
420
  2299925
370
    70
100
AcDbPolyline
 90
        7
 70
     0
 43
0.0
 10
240.976321143271
 20
-374.0165710765568
 10
262.4444444444435
 20
-402.7588949845285
 10
326.538768787872
 20
-430.444444444447
 10
331.0597407385831
 20
-467.8518518518558
 10
339.8979170421044
 20
-464.8482811734266
 10
343.4624905783494
 20
-440.4444444444489
 10
336.3333435058594
 20
-430.444444444447
  0
LWPOLYLINE
  5
B1
330
70
100
AcDbEntity
  8
图层 1
 62
   250
420
  2299925
370
    35
100
AcDbPolyline
 90
        4
 70
     0
 43
0.0
 10
272.6296296296287
 20
-407.1583866882238
 10
277.4444444435212
 20
-424.1481481481514
 10
298.9259259250021
 20
-437.7344062567681
 10
320.0370370370365
 20
-427.6360207999696
  0
LWPOLYLINE
  5
B2
330
70
100
AcDbEntity
  8
图层 1
 62
   250
420
  2299925
370
    70
100
AcDbPolyline
 90
        4
 70
     0
 43
0.0
 10
282.2198356982844
 20
-409.459795720978
 10
287.4444444444435
 20
-424.1481481481514
 10
298.9259259250021
 20
-430.444444444447
 10
316.3333333333321
 20
-429.4076673712607
  0
SPLINE
  5
B3
330
70
100
AcDbEntity
  8
图层 1
 62
   250
420
  2299925
370
    35
100
AcDbSpline
210
0.0
220
0.0
230
1.0
 70
     8
 71
     3
 72
    11
 73
     7
 74
     0
 42
0.0000000001
 43
0.0000000001
 40
0.0
 40
0.0
 40
0.0
 40
0.0
 40
1.0
 40
1.0
 40
1.0
 40
2.0
 40
2.0
 40
2.0
 40
2.0
 10
262.4444444444435
 20
-402.7588949845285
 30
0.0
 10
262.4444444444435
 20
-402.7588949845285
 30
0.0
 10
262.9999999999991
 20
-416.4115226337489
 30
0.0
 10
262.9999999999991
 20
-416.4115226337489
 30
0.0
 10
262.9999999999991
 20
-416.4115226337489
 30
0.0
 10
270.0730681298546
 20
-406.370370370374
 30
0.0
 10
276.5365340649268
 20
-433.777777777781
 30
0.0
  0
SPLINE
  5
B4
330
70
100
AcDbEntity
  8
图层 1
 62
   250
420
  2299925
370
    35
100
AcDbSpline
210
0.0
220
0.0
230
1.0
 70
     8
 71
     3
 72
    17
 73
    13
 74
     0
 42
0.0000000001
 43
0.0000000001
 40
0.0
 40
0.0
 40
0.0
 40
0.0
 40
1.0
 40
1.0
 40
1.0
 40
2.0
 40
2.0
 40
2.0
 40
3.0
 40
3.0
 40
3.0
 40
4.0
 40
4.0
 40
4.0
 40
4.0
 10
407.110105166892
 20
-387.1111111111141
 30
0.0
 10
394.9239140374885
 20
-401.9259259259288
 30
0.0
 10
367.4444444444434
 20
-407.1583866882238
 30
0.0
 10
367.4444444444434
 20
-407.1583866882238
 30
0.0
 10
346.7037037037026
 20
-380.5389955986666
 30
0.0
 10
397.8148148148139
 20
-335.8887491935902
 30
0.0
 10
397.8148148148139
 20
-335.8887491935902
 30
0.0
 10
397.8148148148139
 20
-335.8887491935902
 30
0.0
 10
356.7825044929832
 20
-392.5019454944731
 30
0.0
 10
370.2616226168611
 20
-399.8301660913494
 30
0.0
 10
370.2616226168611
 20
-399.8301660913494
 30
0.0
 10
390.407407407407
 20
-400.2056511456713
 30
0.0
 10
400.7777777777773
 20
-387.1111111111141
 30
0.0
  0
SPLINE
  5
B5
330
70
100
AcDbEntity
  8
图层 1
 62
   250
420
  2299925
370
    35
100
AcDbSpline
210
0.0
220
0.0
230
1.0
 70
     8
 71
     3
 72
    11
 73
     7
 74
     0
 42
0.0000000001
 43
0.0000000001
 40
0.0
 40
0.0
 40
0.0
 40
0.0
 40
1.0
 40
1.0
 40
1.0
 40
2.0
 40
2.0
 40
2.0
 40
2.0
 10
364.3280227260075
 20
-381.185185185188
 30
0.0
 10
364.3280227260075
 20
-381.185185185188
 30
0.0
 10
348.6503389730278
 20
-403.4074074074096
 30
0.0
 10
362.49183615318
 20
-410.8148148148184
 30
0.0
 10
376.3333333333321
 20
-418.2222222222253
 30
0.0
 10
373.9531392867357
 20
-416.5446781273767
 30
0.0
 10
383.7407407407391
 20
-407.1583866882238
 30
0.0
  0
SPLINE
  5
B6
330
70
100
AcDbEntity
  8
图层 1
 62
   250
420
  2299925
370
    70
100
AcDbSpline
210
0.0
220
0.0
230
1.0
 70
     8
 71
     3
 72
    35
 73
    31
 74
     0
 42
0.0000000001
 43
0.0000000001
 40
0.0
 40
0.0
 40
0.0
 40
0.0
 40
1.0
 40
1.0
 40
1.0
 40
2.0
 40
2.0
 40
2.0
 40
3.0
 40
3.0
 40
3.0
 40
4.0
 40
4.0
 40
4.0
 40
5.0
 40
5.0
 40
5.0
 40
6.0
 40
6.0
 40
6.0
 40
7.0
 40
7.0
 40
7.0
 40
8.0
 40
8.0
 40
8.0
 40
9.0
 40
9.0
 40
9.0
 40
10.0
 40
10.0
 40
10.0
 40
10.0
 10
301.0167114753494
 20
-337.4126108130031
 30
0.0
 10
301.0167114753494
 20
-337.4126108130031
 30
0.0
 10
324.4877053859818
 20
-333.6413590938037
 30
0.0
 10
324.4877053859818
 20
-333.6413590938037
 30
0.0
 10
324.4877053859818
 20
-333.6413590938037
 30
0.0
 10
333.2915232484193
 20
-340.6742168836172
 30
0.0
 10
333.2915232484193
 20
-340.6742168836172
 30
0.0
 10
333.2915232484193
 20
-340.6742168836172
 30
0.0
 10
367.8936156040927
 20
-334.8206613220191
 30
0.0
 10
370.2616226168611
 20
-338.0029232536044
 30
0.0
 10
372.6296296296295
 20
-341.185185185188
 30
0.0
 10
377.0605709867559
 20
-325.0792583655084
 30
0.0
 10
377.0605709867559
 20
-325.0792583655084
 30
0.0
 10
377.0605709867559
 20
-325.0792583655084
 30
0.0
 10
384.8009706600369
 20
-325.0792583655084
 30
0.0
 10
384.8009706600369
 20
-325.0792583655084
 30
0.0
 10
384.8009706600369
 20
-325.0792583655084
 30
0.0
 10
384.8009706600369
 20
-332.8767376245632
 30
0.0
 10
384.8009706600369
 20
-332.8767376245632
 30
0.0
 10
384.8009706600369
 20
-332.8767376245632
 30
0.0
 10
393.9727926027463
 20
-333.6413590938037
 30
0.0
 10
393.9727926027463
 20
-333.6413590938037
 30
0.0
 10
393.9727926027463
 20
-333.6413590938037
 30
0.0
 10
407.110105166892
 20
-387.1111111111141
 30
0.0
 10
407.110105166892
 20
-387.1111111111141
 30
0.0
 10
407.110105166892
 20
-387.1111111111141
 30
0.0
 10
368.5200527024717
 20
-417.2521190907428
 30
0.0
 10
360.0370370370365
 20
-427.1111111111149
 30
0.0
 10
360.0370370370365
 20
-427.1111111111149
 30
0.0
 10
356.2019696790485
 20
-473.777777777781
 30
0.0
 10
356.2019696790485
 20
-473.777777777781
 30
0.0
  0
SPLINE
  5
B7
330
70
100
AcDbEntity
  8
图层 1
 62
   250
420
  2299925
370
    70
100
AcDbSpline
210
0.0
220
0.0
230
1.0
 70
     8
 71
     3
 72
     8
 73
     4
 74
     0
 42
0.0000000001
 43
0.0000000001
 40
0.0
 40
0.0
 40
0.0
 40
0.0
 40
1.0
 40
1.0
 40
1.0
 40
1.0
 10
405.6374319394417
 20
-417.4814814814854
 30
0.0
 10
405.6374319394417
 20
-417.4814814814854
 30
0.0
 10
402.2592592592572
 20
-405.3947384394596
 30
0.0
 10
357.074074074073
 20
-437.7344062567681
 30
0.0
  0
SPLINE
  5
B8
330
70
100
AcDbEntity
  8
图层 1
 62
   250
420
  2299925
370
    70
100
AcDbSpline
210
0.0
220
0.0
230
1.0
 70
     8
 71
     3
 72
    11
 73
     7
 74
     0
 42
0.0000000001
 43
0.0000000001
 40
0.0
 40
0.0
 40
0.0
 40
0.0
 40
1.0
 40
1.0
 40
1.0
 40
2.0
 40
2.0
 40
2.0
 40
2.0
 10
478.4999419229261
 20
-391.0165659282602
 30
0.0
 10
497.7237573880775
 20
-384.9209242655097
 30
0.0
 10
513.1249751879895
 20
-408.9847182145804
 30
0.0
 10
499.5168511030843
 20
-423.87343967794
 30
0.0
 10
496.167158844346
 20
-427.5383559233524
 30
0.0
 10
491.5021500546299
 20
-429.8793367250801
 30
0.0
 10
486.5577676369684
 20
-430.3520423446116
 30
0.0
  0
SPLINE
  5
B9
330
70
100
AcDbEntity
  8
图层 1
 62
   250
420
  2299925
370
    70
100
AcDbSpline
210
0.0
220
0.0
230
1.0
 70
     8
 71
     3
 72
     8
 73
     4
 74
     0
 42
0.0000000001
 43
0.0000000001
 40
0.0
 40
0.0
 40
0.0
 40
0.0
 40
1.0
 40
1.0
 40
1.0
 40
1.0
 10
484.6137995941989
 20
-430.444444444447
 30
0.0
 10
482.2976883184128
 20
-430.444444444447
 30
0.0
 10
480.0726868295641
 20
-430.0543570746504
 30
0.0
 10
478.0009109526836
 20
-429.3362981600966
 30
0.0
  0
LINE
  5
BA
330
70
100
AcDbEntity
  8
图层 1
 62
   250
420
  2299925
370
    25
100
AcDbLine
 10
459.2962951660156
 20
-380.4444580078134
 30
0.0
 11
468.3450823516231
 21
-398.3137842046454
 31
0.0
  0
SPLINE
  5
BB
330
70
100
AcDbEntity
  8
图层 1
 62
   250
420
  2299925
370
     9
100
AcDbSpline
210
0.0
220
0.0
230
1.0
 70
     8
 71
     3
 72
    17
 73
    13
 74
     0
 42
0.0000000001
 43
0.0000000001
 40
0.0
 40
0.0
 40
0.0
 40
0.0
 40
1.0
 40
1.0
 40
1.0
 40
2.0
 40
2.0
 40
2.0
 40
3.0
 40
3.0
 40
3.0
 40
4.0
 40
4.0
 40
4.0
 40
4.0
 10
76.54567607651188
 20
-530.2027633427733
 30
0.0
 10
74.09612008686508
 20
-534.7257794079487
 30
0.0
 10
71.59282804705253
 20
-539.4265409744093
 30
0.0
 10
71.23042874588737
 20
-544.5574927008201
 30
0.0
 10
71.04115696137615
 20
-547.2372555713973
 30
0.0
 10
71.44669709161462
 20
-549.9617531389212
 30
0.0
 10
70.93746379705499
 20
-552.599485958688
 30
0.0
 10
70.42823050249535
 20
-555.2372187784531
 30
0.0
 10
68.63584989109313
 20
-557.9233359294903
 30
0.0
 10
65.97203481828728
 20
-558.2712471748563
 30
0.0
 10
60.89677450320778
 20
-558.9341067017921
 30
0.0
 10
57.73683941490435
 20
-551.1855350854439
 30
0.0
 10
52.64455912218273
 20
-551.7015951000794
 30
0.0
  0
SPLINE
  5
BC
330
70
100
AcDbEntity
  8
图层 1
 62
   250
420
  2299925
370
     9
100
AcDbSpline
210
0.0
220
0.0
230
1.0
 70
     8
 71
     3
 72
    17
 73
    13
 74
     0
 42
0.0000000001
 43
0.0000000001
 40
0.0
 40
0.0
 40
0.0
 40
0.0
 40
1.0
 40
1.0
 40
1.0
 40
2.0
 40
2.0
 40
2.0
 40
3.0
 40
3.0
 40
3.0
 40
4.0
 40
4.0
 40
4.0
 40
4.0
 10
84.16588495273117
 20
-531.7761108929117
 30
0.0
 10
82.69526781142667
 20
-530.685872899241
 30
0.0
 10
80.81916319897391
 20
-532.5566044044735
 30
0.0
 10
80.13697785657132
 20
-534.2554148170129
 30
0.0
 10
78.01457786023457
 20
-539.5407410484222
 30
0.0
 10
78.15383870150435
 20
-545.454819531853
 30
0.0
 10
76.65196898783506
 20
-550.9487829313802
 30
0.0
 10
75.15009927416485
 20
-556.4427463309057
 30
0.0
 10
70.97827701835922
 20
-562.045506681974
 30
0.0
 10
65.28275700939957
 20
-562.0282353264574
 30
0.0
 10
59.74827367615308
 20
-562.0114515461501
 30
0.0
 10
55.20821781169434
 20
-556.706892867478
 30
0.0
 10
49.67802001186555
 20
-556.9252724262896
 30
0.0
  0
SPLINE
  5
BD
330
70
100
AcDbEntity
  8
图层 1
 62
   250
420
  2299925
370
     9
100
AcDbSpline
210
0.0
220
0.0
230
1.0
 70
     8
 71
     3
 72
    32
 73
    28
 74
     0
 42
0.0000000001
 43
0.0000000001
 40
0.0
 40
0.0
 40
0.0
 40
0.0
 40
1.0
 40
1.0
 40
1.0
 40
2.0
 40
2.0
 40
2.0
 40
3.0
 40
3.0
 40
3.0
 40
4.0
 40
4.0
 40
4.0
 40
5.0
 40
5.0
 40
5.0
 40
6.0
 40
6.0
 40
6.0
 40
7.0
 40
7.0
 40
7.0
 40
8.0
 40
8.0
 40
8.0
 40
9.0
 40
9.0
 40
9.0
 40
9.0
 10
96.31406927868193
 20
-536.7117411798917
 30
0.0
 10
91.4355193695701
 20
-539.2885226174676
 30
0.0
 10
88.41808721467987
 20
-544.5347249722617
 30
0.0
 10
87.22428016536833
 20
-549.9212708526683
 30
0.0
 10
86.03047311605587
 20
-555.3078167330768
 30
0.0
 10
86.41472143517422
 20
-560.902946857419
 30
0.0
 10
86.80510134345785
 20
-566.4063690036764
 30
0.0
 10
86.88564545078589
 20
-567.5418481109809
 30
0.0
 10
86.97886933457539
 20
-568.720809373257
 30
0.0
 10
87.54249562944641
 20
-569.7098116762171
 30
0.0
 10
88.21276355311601
 20
-570.885939548074
 30
0.0
 10
89.44119507380946
 20
-571.6129237712011
 30
0.0
 10
90.61528078168795
 20
-572.2867624864575
 30
0.0
 10
94.38436774775983
 20
-574.4499405490897
 30
0.0
 10
98.6594579450757
 20
-576.6910545548016
 30
0.0
 10
102.8675395870532
 20
-575.6059718601136
 30
0.0
 10
104.4767652108012
 20
-575.1910225082956
 30
0.0
 10
105.9283190139403
 20
-574.3110173065797
 30
0.0
 10
107.5102281331328
 20
-573.8017497324799
 30
0.0
 10
109.4943716618627
 20
-573.1629898572209
 30
0.0
 10
111.6607612616471
 20
-573.1141797999335
 30
0.0
 10
113.5506802734244
 20
-572.2349497967443
 30
0.0
 10
117.376547095153
 20
-570.4550798055643
 30
0.0
 10
118.949687964423
 20
-565.0549904802174
 30
0.0
 10
116.6782878985914
 20
-561.4988778609549
 30
0.0
 10
114.4068878327607
 20
-557.9427652416943
 30
0.0
 10
108.8459001565343
 20
-557.0994663734673
 30
0.0
 10
105.6223273896848
 20
-559.8222909797804
 30
0.0
  0
SPLINE
  5
BE
330
70
100
AcDbEntity
  8
图层 1
 62
   250
420
  2299925
370
     9
100
AcDbSpline
210
0.0
220
0.0
230
1.0
 70
     8
 71
     3
 72
    23
 73
    19
 74
     0
 42
0.0000000001
 43
0.0000000001
 40
0.0
 40
0.0
 40
0.0
 40
0.0
 40
1.0
 40
1.0
 40
1.0
 40
2.0
 40
2.0
 40
2.0
 40
3.0
 40
3.0
 40
3.0
 40
4.0
 40
4.0
 40
4.0
 40
5.0
 40
5.0
 40
5.0
 40
6.0
 40
6.0
 40
6.0
 40
6.0
 10
120.0093517807909
 20
-547.3236152547269
 30
0.0
 10
117.0101149339243
 20
-548.4475712748499
 30
0.0
 10
113.9516754588267
 20
-549.584267502736
 30
0.0
 10
110.7528725245074
 20
-549.7466207785292
 30
0.0
 10
108.8507332949384
 20
-549.8431619873245
 30
0.0
 10
106.9264480607326
 20
-549.5922674939647
 30
0.0
 10
105.0483036629575
 20
-549.90853838574
 30
0.0
 10
100.5725022725655
 20
-550.6622454618828
 30
0.0
 10
97.02578574608834
 20
-554.8698444176116
 30
0.0
 10
96.72330891889941
 20
-559.3985722773668
 30
0.0
 10
96.42083209171051
 20
-563.927300137122
 30
0.0
 10
99.17855114903979
 20
-568.423434462502
 30
0.0
 10
103.209684532776
 20
-570.5092992474837
 30
0.0
 10
104.9764491327723
 20
-571.4234939890557
 30
0.0
 10
107.1636869345993
 20
-571.8945711739106
 30
0.0
 10
108.930138868759
 20
-570.9797756367698
 30
0.0
 10
110.6965908029187
 20
-570.0649800996289
 30
0.0
 10
111.4927218533848
 20
-567.3510109926992
 30
0.0
 10
110.019442413497
 20
-566.0143543417689
 30
0.0
  0
SPLINE
  5
BF
330
70
100
AcDbEntity
  8
图层 1
 62
   250
420
  2299925
370
     9
100
AcDbSpline
210
0.0
220
0.0
230
1.0
 70
     8
 71
     3
 72
    20
 73
    16
 74
     0
 42
0.0000000001
 43
0.0000000001
 40
0.0
 40
0.0
 40
0.0
 40
0.0
 40
1.0
 40
1.0
 40
1.0
 40
2.0
 40
2.0
 40
2.0
 40
3.0
 40
3.0
 40
3.0
 40
4.0
 40
4.0
 40
4.0
 40
5.0
 40
5.0
 40
5.0
 40
5.0
 10
120.862489451526
 20
-555.2815554380049
 30
0.0
 10
119.5212269899148
 20
-560.536384339277
 30
0.0
 10
124.6670318184033
 20
-566.1456789533713
 30
0.0
 10
122.5698759568586
 20
-571.147093659727
 30
0.0
 10
121.8080675855835
 20
-572.9638975811649
 30
0.0
 10
120.2160171092991
 20
-574.2766698460981
 30
0.0
 10
118.6825300786231
 20
-575.5134177263061
 30
0.0
 10
114.9066266302998
 20
-578.5586562537537
 30
0.0
 10
110.8525434661851
 20
-581.7252339066071
 30
0.0
 10
106.0349103480657
 20
-582.2920940931635
 30
0.0
 10
108.7678596420073
 20
-581.1498705797166
 30
0.0
 10
112.0308577245086
 20
-582.6138468160498
 30
0.0
 10
113.8810957967725
 20
-584.9269198681795
 30
0.0
 10
115.7313338690374
 20
-587.2399929203092
 30
0.0
 10
116.4944506930205
 20
-590.2127962853009
 30
0.0
 10
117.2100916231302
 20
-593.0870867938756
 30
0.0
  0
SPLINE
  5
C0
330
70
100
AcDbEntity
  8
图层 1
 62
   250
420
  2299925
370
     9
100
AcDbSpline
210
0.0
220
0.0
230
1.0
 70
     8
 71
     3
 72
    26
 73
    22
 74
     0
 42
0.0000000001
 43
0.0000000001
 40
0.0
 40
0.0
 40
0.0
 40
0.0
 40
1.0
 40
1.0
 40
1.0
 40
2.0
 40
2.0
 40
2.0
 40
3.0
 40
3.0
 40
3.0
 40
4.0
 40
4.0
 40
4.0
 40
5.0
 40
5.0
 40
5.0
 40
6.0
 40
6.0
 40
6.0
 40
7.0
 40
7.0
 40
7.0
 40
7.0
 10
122.3419852689148
 20
-595.9683549714045
 30
0.0
 10
121.4070839962405
 20
-590.0319745896085
 30
0.0
 10
123.6218347205213
 20
-582.6254474957495
 30
0.0
 10
129.4654720607113
 20
-581.2231083558327
 30
0.0
 10
132.63368550627
 20
-580.4628081181381
 30
0.0
 10
136.102754141697
 20
-581.8292414056013
 30
0.0
 10
138.2459950862603
 20
-584.2832489459142
 30
0.0
 10
140.3892360308236
 20
-586.7372564862271
 30
0.0
 10
141.2852631538444
 20
-590.124220305026
 30
0.0
 10
141.099974871161
 20
-593.3771117890228
 30
0.0
 10
140.9848037252077
 20
-595.3990456318806
 30
0.0
 10
140.4294822842757
 20
-597.4859506551983
 30
0.0
 10
139.0428295349984
 20
-598.9619830702285
 30
0.0
 10
137.6561767857192
 20
-600.438015485257
 30
0.0
 10
135.295280933401
 20
-601.113344722371
 30
0.0
 10
133.5248143648214
 20
-600.1300209370183
 30
0.0
 10
131.9637082204835
 20
-599.2629774151846
 30
0.0
 10
131.2177447544854
 20
-597.168931934686
 30
0.0
 10
131.8790857376288
 20
-595.51018389212
 30
0.0
 10
132.5404267207723
 20
-593.8514358495522
 30
0.0
 10
134.5225228332347
 20
-592.8450646615893
 30
0.0
 10
136.2519430507891
 20
-593.2899496757399
 30
0.0
  0
SPLINE
  5
C1
330
70
100
AcDbEntity
  8
图层 1
 62
   250
420
  2299925
370
     9
100
AcDbSpline
210
0.0
220
0.0
230
1.0
 70
     8
 71
     3
 72
    38
 73
    34
 74
     0
 42
0.0000000001
 43
0.0000000001
 40
0.0
 40
0.0
 40
0.0
 40
0.0
 40
1.0
 40
1.0
 40
1.0
 40
2.0
 40
2.0
 40
2.0
 40
3.0
 40
3.0
 40
3.0
 40
4.0
 40
4.0
 40
4.0
 40
5.0
 40
5.0
 40
5.0
 40
6.0
 40
6.0
 40
6.0
 40
7.0
 40
7.0
 40
7.0
 40
8.0
 40
8.0
 40
8.0
 40
9.0
 40
9.0
 40
9.0
 40
10.0
 40
10.0
 40
10.0
 40
11.0
 40
11.0
 40
11.0
 40
11.0
 10
137.1730534430507
 20
-586.2528437250802
 30
0.0
 10
135.1153210017346
 20
-585.0812179766944
 30
0.0
 10
132.4609058651231
 20
-585.7822201345625
 30
0.0
 10
130.4699480099152
 20
-587.0640377944146
 30
0.0
 10
127.792385427877
 20
-588.7879067908543
 30
0.0
 10
125.7422199088214
 20
-591.6249456849309
 30
0.0
 10
125.4080333938482
 20
-594.7918658857579
 30
0.0
 10
125.073846878874
 20
-597.9587860865849
 30
0.0
 10
126.6739847238714
 20
-601.3612082442651
 30
0.0
 10
129.5394260639314
 20
-602.7505642504311
 30
0.0
 10
128.4991258774589
 20
-601.6767916993613
 30
0.0
 10
127.4588251998684
 20
-600.6030187216256
 30
0.0
 10
126.4185245222761
 20
-599.5292457438917
 30
0.0
 10
126.4814302835411
 20
-602.256510071751
 30
0.0
 10
128.5298186547443
 20
-604.6218633863973
 30
0.0
 10
130.9605048318171
 20
-605.8602868165944
 30
0.0
 10
133.39119100889
 20
-607.0987102467916
 30
0.0
 10
136.1692079320428
 20
-607.4241932706755
 30
0.0
 10
138.87999101902
 20
-607.730106557783
 30
0.0
 10
141.437488957782
 20
-608.0187205594756
 30
0.0
 10
144.3681542866361
 20
-608.1890631755068
 30
0.0
 10
146.2187542527817
 20
-606.4003842348101
 30
0.0
 10
147.7090437894339
 20
-604.9599582638729
 30
0.0
 10
147.9877743152683
 20
-602.7092521087579
 30
0.0
 10
148.180527514628
 20
-600.6456062760571
 30
0.0
 10
148.7952822109082
 20
-594.0639438105736
 30
0.0
 10
149.2083706444691
 20
-586.7529032700531
 30
0.0
 10
145.1082577768347
 20
-581.5678016855381
 30
0.0
 10
142.706334880726
 20
-578.530272453856
 30
0.0
 10
139.0752844163644
 20
-576.7041290449087
 30
0.0
 10
136.4552626744516
 20
-573.8525849948746
 30
0.0
 10
131.4252695315226
 20
-568.3781136792967
 30
0.0
 10
130.5640432041309
 20
-559.6642562047746
 30
0.0
 10
124.6633583752782
 20
-555.1418025823404
 30
0.0
  0
SPLINE
  5
C2
330
70
100
AcDbEntity
  8
图层 1
 62
   250
420
  2299925
370
     9
100
AcDbSpline
210
0.0
220
0.0
230
1.0
 70
     8
 71
     3
 72
    14
 73
    10
 74
     0
 42
0.0000000001
 43
0.0000000001
 40
0.0
 40
0.0
 40
0.0
 40
0.0
 40
1.0
 40
1.0
 40
1.0
 40
2.0
 40
2.0
 40
2.0
 40
3.0
 40
3.0
 40
3.0
 40
3.0
 10
151.1395022062752
 20
-594.6962613697815
 30
0.0
 10
151.9584051909269
 20
-597.5790548674358
 30
0.0
 10
151.3759547419704
 20
-600.8259114856664
 30
0.0
 10
149.6060767828812
 20
-603.2443060891837
 30
0.0
 10
147.8074728047313
 20
-605.7019533899038
 30
0.0
 10
145.0034696607017
 20
-607.1840814456136
 30
0.0
 10
142.2984462299064
 20
-608.5833148759884
 30
0.0
 10
139.4101026056087
 20
-610.0773748505198
 30
0.0
 10
135.7857168708533
 20
-611.5443267276914
 30
0.0
 10
133.1070477707726
 20
-609.7005612878401
 30
0.0
  0
SPLINE
  5
C3
330
70
100
AcDbEntity
  8
图层 1
 62
   250
420
  2299925
370
     9
100
AcDbSpline
210
0.0
220
0.0
230
1.0
 70
     8
 71
     3
 72
    32
 73
    28
 74
     0
 42
0.0000000001
 43
0.0000000001
 40
0.0
 40
0.0
 40
0.0
 40
0.0
 40
1.0
 40
1.0
 40
1.0
 40
2.0
 40
2.0
 40
2.0
 40
3.0
 40
3.0
 40
3.0
 40
4.0
 40
4.0
 40
4.0
 40
5.0
 40
5.0
 40
5.0
 40
6.0
 40
6.0
 40
6.0
 40
7.0
 40
7.0
 40
7.0
 40
8.0
 40
8.0
 40
8.0
 40
9.0
 40
9.0
 40
9.0
 40
9.0
 10
157.0627601588867
 20
-604.2766658329201
 30
0.0
 10
154.7841174948444
 20
-602.8270542913742
 30
0.0
 10
152.3673106846499
 20
-605.7542074608936
 30
0.0
 10
150.6762766376887
 20
-607.8599115863108
 30
0.0
 10
148.8058117249511
 20
-610.1890538946572
 30
0.0
 10
146.2145621839981
 20
-611.9309644708628
 30
0.0
 10
143.3516415085196
 20
-612.7837400303978
 30
0.0
 10
141.5143649995434
 20
-613.3310077534315
 30
0.0
 10
139.0352197586744
 20
-614.222004877869
 30
0.0
 10
139.3277888378279
 20
-616.116599785526
 30
0.0
 10
139.5259341602923
 20
-617.3997349376659
 30
0.0
 10
140.9526366043537
 20
-618.0222836359352
 30
0.0
 10
142.1230631106636
 20
-618.584243853069
 30
0.0
 10
148.6773438642776
 20
-621.7311697225504
 30
0.0
 10
151.9057523080364
 20
-629.098133590367
 30
0.0
 10
154.3358834413848
 20
-635.95059278205
 30
0.0
 10
157.151342125906
 20
-643.8895956909018
 30
0.0
 10
159.620321513893
 20
-651.9514640965444
 30
0.0
 10
161.7334389979387
 20
-660.1055617694182
 30
0.0
 10
161.2126808331759
 20
-649.5553155920188
 30
0.0
 10
161.3070001666774
 20
-638.9747417231156
 30
0.0
 10
162.015758654973
 20
-628.4354559467884
 30
0.0
 10
162.155248190309
 20
-626.3612351508454
 30
0.0
 10
162.3990308564171
 20
-624.1031705387431
 30
0.0
 10
163.857555301709
 20
-622.6217672721013
 30
0.0
 10
165.316079747
 20
-621.1403640054595
 30
0.0
 10
168.4059871311947
 20
-621.2699903425837
 30
0.0
 10
168.9773385739199
 20
-623.2688416939417
 30
0.0
  0
SPLINE
  5
C4
330
70
100
AcDbEntity
  8
图层 1
 62
   250
420
  2299925
370
     9
100
AcDbSpline
210
0.0
220
0.0
230
1.0
 70
     8
 71
     3
 72
    17
 73
    13
 74
     0
 42
0.0000000001
 43
0.0000000001
 40
0.0
 40
0.0
 40
0.0
 40
0.0
 40
1.0
 40
1.0
 40
1.0
 40
2.0
 40
2.0
 40
2.0
 40
3.0
 40
3.0
 40
3.0
 40
4.0
 40
4.0
 40
4.0
 40
4.0
 10
171.1436089990456
 20
-630.7775218277074
 30
0.0
 10
170.1396666030732
 20
-632.4009065717728
 30
0.0
 10
167.4882236600997
 20
-630.2330736387193
 30
0.0
 10
165.7523647081143
 20
-631.0268444245958
 30
0.0
 10
165.1756206313275
 20
-631.2905750002191
 30
0.0
 10
164.7987319315116
 20
-631.8554990730026
 30
0.0
 10
164.5158900212445
 20
-632.4231158733637
 30
0.0
 10
160.4761886165079
 20
-640.5301282226682
 30
0.0
 10
170.2334317081104
 20
-650.1716350254173
 30
0.0
 10
167.3374780132271
 20
-658.7539591722179
 30
0.0
 10
167.373133165127
 20
-656.601407235763
 30
0.0
 10
167.4087886837387
 20
-654.4488550441801
 30
0.0
 10
167.4444442023496
 20
-652.2963028525973
 30
0.0
  0
SPLINE
  5
C5
330
70
100
AcDbEntity
  8
图层 1
 62
   250
420
  2299925
370
     9
100
AcDbSpline
210
0.0
220
0.0
230
1.0
 70
     8
 71
     3
 72
    14
 73
    10
 74
     0
 42
0.0000000001
 43
0.0000000001
 40
0.0
 40
0.0
 40
0.0
 40
0.0
 40
1.0
 40
1.0
 40
1.0
 40
2.0
 40
2.0
 40
2.0
 40
3.0
 40
3.0
 40
3.0
 40
3.0
 10
160.5047318069919
 20
-609.6865860702364
 30
0.0
 10
162.6055659708891
 20
-611.2301753051014
 30
0.0
 10
162.1685025304377
 20
-614.7364270996767
 30
0.0
 10
160.2966649531172
 20
-616.5509231714058
 30
0.0
 10
158.4248273757966
 20
-618.3654192431349
 30
0.0
 10
155.6949995409077
 20
-618.9151171616522
 30
0.0
 10
153.1179387970205
 20
-619.3087284324628
 30
0.0
 10
152.0860493606269
 20
-615.8190378619401
 30
0.0
 10
154.3059627727907
 20
-611.7048273944056
 30
0.0
 10
157.7892060311324
 20
-610.6513748835641
 30
0.0
  0
SPLINE
  5
C6
330
70
100
AcDbEntity
  8
图层 1
 62
   250
420
  2299925
370
     9
100
AcDbSpline
210
0.0
220
0.0
230
1.0
 70
     8
 71
     3
 72
     8
 73
     4
 74
     0
 42
0.0000000001
 43
0.0000000001
 40
0.0
 40
0.0
 40
0.0
 40
0.0
 40
1.0
 40
1.0
 40
1.0
 40
1.0
 10
154.3357913017598
 20
-604.4215589084269
 30
0.0
 10
157.3018710035976
 20
-610.0200098289369
 30
0.0
 10
155.0253720644887
 20
-617.7895658013913
 30
0.0
 10
149.5069692118468
 20
-620.9020425423404
 30
0.0
  0
SPLINE
  5
C7
330
70
100
AcDbEntity
  8
图层 1
 62
   250
420
  2299925
370
     9
100
AcDbSpline
210
0.0
220
0.0
230
1.0
 70
     8
 71
     3
 72
    14
 73
    10
 74
     0
 42
0.0000000001
 43
0.0000000001
 40
0.0
 40
0.0
 40
0.0
 40
0.0
 40
1.0
 40
1.0
 40
1.0
 40
2.0
 40
2.0
 40
2.0
 40
3.0
 40
3.0
 40
3.0
 40
3.0
 10
401.1301994909736
 20
-460.2019820027053
 30
0.0
 10
401.9205996662403
 20
-458.3135756664069
 30
0.0
 10
404.9540169042574
 20
-458.544493478228
 30
0.0
 10
406.2158933795453
 20
-460.1564732203932
 30
0.0
 10
407.4777698548332
 20
-461.7684529625584
 30
0.0
 10
407.4750348450252
 20
-464.0005764270536
 30
0.0
 10
407.4146483928871
 20
-466.0468326193313
 30
0.0
 10
407.2785454712557
 20
-470.6587077404874
 30
0.0
 10
407.1424443109298
 20
-475.2705822162716
 30
0.0
 10
407.0063431506041
 20
-479.8824566920575
 30
0.0
  0
SPLINE
  5
C8
330
70
100
AcDbEntity
  8
图层 1
 62
   250
420
  2299925
370
     9
100
AcDbSpline
210
0.0
220
0.0
230
1.0
 70
     8
 71
     3
 72
    20
 73
    16
 74
     0
 42
0.0000000001
 43
0.0000000001
 40
0.0
 40
0.0
 40
0.0
 40
0.0
 40
1.0
 40
1.0
 40
1.0
 40
2.0
 40
2.0
 40
2.0
 40
3.0
 40
3.0
 40
3.0
 40
4.0
 40
4.0
 40
4.0
 40
5.0
 40
5.0
 40
5.0
 40
5.0
 10
437.1010802430173
 20
-552.0635968862352
 30
0.0
 10
451.9429012267756
 20
-521.4605271058007
 30
0.0
 10
418.2248048423916
 20
-471.0618109904207
 30
0.0
 10
407.9436889460303
 20
-465.3214111697125
 30
0.0
 10
407.9436889460303
 20
-465.3214111697125
 30
0.0
 10
441.61886118867
 20
-484.6448954761981
 30
0.0
 10
441.61886118867
 20
-484.6448954761981
 30
0.0
 10
442.6376100054076
 20
-489.4277054933845
 30
0.0
 10
443.656358822147
 20
-494.2105155105728
 30
0.0
 10
444.6751076388864
 20
-498.993325527761
 30
0.0
 10
447.3063176422219
 20
-511.3462927665295
 30
0.0
 10
449.94855684932
 20
-524.0538449449887
 30
0.0
 10
447.8670170613149
 20
-536.5112225462872
 30
0.0
 10
446.7543925757145
 20
-543.1699287663504
 30
0.0
 10
444.3222942479406
 20
-549.5255709926423
 30
0.0
 10
441.9047195513212
 20
-555.8288739318413
 30
0.0
  0
SPLINE
  5
C9
330
70
100
AcDbEntity
  8
图层 1
 62
   250
420
  2299925
370
     9
100
AcDbSpline
210
0.0
220
0.0
230
1.0
 70
     8
 71
     3
 72
    11
 73
     7
 74
     0
 42
0.0000000001
 43
0.0000000001
 40
0.0
 40
0.0
 40
0.0
 40
0.0
 40
1.0
 40
1.0
 40
1.0
 40
2.0
 40
2.0
 40
2.0
 40
2.0
 10
441.4905461514044
 20
-489.3421647917039
 30
0.0
 10
444.0235066645055
 20
-495.0212165304474
 30
0.0
 10
445.2553176749006
 20
-501.2027193631093
 30
0.0
 10
445.9070256082704
 20
-507.3867952343952
 30
0.0
 10
447.7426424137738
 20
-524.804913943557
 30
0.0
 10
445.0331465991857
 20
-542.6822802688566
 30
0.0
 10
438.1187411534575
 20
-558.774244748718
 30
0.0
  0
SPLINE
  5
CA
330
70
100
AcDbEntity
  8
图层 1
 62
   250
420
  2299925
370
     9
100
AcDbSpline
210
0.0
220
0.0
230
1.0
 70
     8
 71
     3
 72
    20
 73
    16
 74
     0
 42
0.0000000001
 43
0.0000000001
 40
0.0
 40
0.0
 40
0.0
 40
0.0
 40
1.0
 40
1.0
 40
1.0
 40
2.0
 40
2.0
 40
2.0
 40
3.0
 40
3.0
 40
3.0
 40
4.0
 40
4.0
 40
4.0
 40
5.0
 40
5.0
 40
5.0
 40
5.0
 10
445.1078122190592
 20
-484.6807714204914
 30
0.0
 10
450.2535727660033
 20
-488.1084797803541
 30
0.0
 10
455.3993333129474
 20
-491.536188140215
 30
0.0
 10
460.5450938598933
 20
-494.9638965000758
 30
0.0
 10
463.4565984237797
 20
-496.9033152196552
 30
0.0
 10
466.4945724219615
 20
-498.9826067067497
 30
0.0
 10
468.0545929552099
 20
-502.1138266868401
 30
0.0
 10
469.0382403090352
 20
-504.0881669280006
 30
0.0
 10
469.3463511913724
 20
-506.3221274085062
 30
0.0
 10
469.5785072469353
 20
-508.5156826700986
 30
0.0
 10
472.5283336143329
 20
-536.387713304306
 30
0.0
 10
465.4225392341141
 20
-564.2351376489314
 30
0.0
 10
458.3765619867754
 20
-591.3627200139489
 30
0.0
 10
456.6708844119475
 20
-597.9296988699661
 30
0.0
 10
454.9652105763489
 20
-604.4966775416741
 30
0.0
 10
453.2595367407521
 20
-611.0636562133822
 30
0.0
  0
SPLINE
  5
CB
330
70
100
AcDbEntity
  8
图层 1
 62
   250
420
  2299925
370
     9
100
AcDbSpline
210
0.0
220
0.0
230
1.0
 70
     8
 71
     3
 72
    26
 73
    22
 74
     0
 42
0.0000000001
 43
0.0000000001
 40
0.0
 40
0.0
 40
0.0
 40
0.0
 40
1.0
 40
1.0
 40
1.0
 40
2.0
 40
2.0
 40
2.0
 40
3.0
 40
3.0
 40
3.0
 40
4.0
 40
4.0
 40
4.0
 40
5.0
 40
5.0
 40
5.0
 40
6.0
 40
6.0
 40
6.0
 40
7.0
 40
7.0
 40
7.0
 40
7.0
 10
445.2891540715991
 20
-489.3646844704362
 30
0.0
 10
443.1440207264749
 20
-491.3582733504426
 30
0.0
 10
444.9310560647045
 20
-494.9105631275378
 30
0.0
 10
446.8985107415956
 20
-497.0796910133994
 30
0.0
 10
449.5613170041196
 20
-500.0154458560372
 30
0.0
 10
452.4850982121789
 20
-502.7144013632259
 30
0.0
 10
455.6240860760426
 20
-505.1343079088582
 30
0.0
 10
456.7015850700227
 20
-505.9649737931358
 30
0.0
 10
458.0484593480396
 20
-506.8057790827861
 30
0.0
 10
459.3343667421759
 20
-506.3614235169261
 30
0.0
 10
460.8634246471792
 20
-505.8330431732592
 30
0.0
 10
461.2735550486595
 20
-503.8400834325111
 30
0.0
 10
461.066187321232
 20
-502.2356520912126
 30
0.0
 10
460.8831218459235
 20
-500.8192531712575
 30
0.0
 10
460.3686217103532
 20
-499.3729704819943
 30
0.0
 10
459.2782030672151
 20
-498.4506442062811
 30
0.0
 10
458.1877844240771
 20
-497.5283179305661
 30
0.0
 10
456.4257201613709
 20
-497.3126620274379
 30
0.0
 10
455.3515741830942
 20
-498.2538894141671
 30
0.0
 10
453.4008630042899
 20
-499.9632119930411
 30
0.0
 10
455.1717176944675
 20
-503.1384240388488
 30
0.0
 10
457.0925772459504
 20
-504.8812245042154
 30
0.0
  0
SPLINE
  5
CC
330
70
100
AcDbEntity
  8
图层 1
 62
   250
420
  2299925
370
     9
100
AcDbSpline
210
0.0
220
0.0
230
1.0
 70
     8
 71
     3
 72
    23
 73
    19
 74
     0
 42
0.0000000001
 43
0.0000000001
 40
0.0
 40
0.0
 40
0.0
 40
0.0
 40
1.0
 40
1.0
 40
1.0
 40
2.0
 40
2.0
 40
2.0
 40
3.0
 40
3.0
 40
3.0
 40
4.0
 40
4.0
 40
4.0
 40
5.0
 40
5.0
 40
5.0
 40
6.0
 40
6.0
 40
6.0
 40
6.0
 10
450.520292057612
 20
-510.8346534154533
 30
0.0
 10
450.4663097715329
 20
-514.9759964247987
 30
0.0
 10
450.8237028146541
 20
-519.1225957474834
 30
0.0
 10
451.5855049585006
 20
-523.1936267596338
 30
0.0
 10
451.7914840267076
 20
-524.2943778512544
 30
0.0
 10
452.0474190996774
 20
-525.4343284177866
 30
0.0
 10
452.7482584235404
 20
-526.3077724104824
 30
0.0
 10
453.7154099866056
 20
-527.5131132148908
 30
0.0
 10
455.3204070718875
 20
-527.9684639662955
 30
0.0
 10
456.8256827393579
 20
-528.3182808616511
 30
0.0
 10
458.5135669395149
 20
-528.7105312030853
 30
0.0
 10
460.2740889669093
 20
-529.0551084042581
 30
0.0
 10
461.9664431596829
 20
-528.6826193253927
 30
0.0
 10
463.6587973524583
 20
-528.3101302465293
 30
0.0
 10
465.2706141207509
 20
-527.035333441785
 30
0.0
 10
465.5001879213359
 20
-525.317745977416
 30
0.0
 10
465.729761721921
 20
-523.6001585130471
 30
0.0
 10
464.0312917321516
 20
-521.756742134461
 30
0.0
 10
462.3727306259988
 20
-522.2587240911379
 30
0.0
  0
SPLINE
  5
CD
330
70
100
AcDbEntity
  8
图层 1
 62
   250
420
  2299925
370
     9
100
AcDbSpline
210
0.0
220
0.0
230
1.0
 70
     8
 71
     3
 72
    23
 73
    19
 74
     0
 42
0.0000000001
 43
0.0000000001
 40
0.0
 40
0.0
 40
0.0
 40
0.0
 40
1.0
 40
1.0
 40
1.0
 40
2.0
 40
2.0
 40
2.0
 40
3.0
 40
3.0
 40
3.0
 40
4.0
 40
4.0
 40
4.0
 40
5.0
 40
5.0
 40
5.0
 40
6.0
 40
6.0
 40
6.0
 40
6.0
 10
450.2256929447248
 20
-530.9110014818161
 30
0.0
 10
451.966222677076
 20
-533.7244267966688
 30
0.0
 10
453.9520727577783
 20
-536.3860250044454
 30
0.0
 10
456.1533261805671
 20
-538.8556988938708
 30
0.0
 10
457.2261925838811
 20
-540.0593920630144
 30
0.0
 10
458.4922760102635
 20
-541.2902615042403
 30
0.0
 10
460.096512070968
 20
-541.4525751006022
 30
0.0
 10
461.9150217314927
 20
-541.6365686628669
 30
0.0
 10
463.5856594886663
 20
-540.359489271168
 30
0.0
 10
464.6393977903681
 20
-538.86601510342
 30
0.0
 10
465.9008183487494
 20
-537.0781935200447
 30
0.0
 10
466.5723750644047
 20
-534.7268873049743
 30
0.0
 10
465.8371897788111
 20
-532.6660658162891
 30
0.0
 10
465.1020044932156
 20
-530.6052443276039
 30
0.0
 10
462.6598862298087
 20
-529.1352297405828
 30
0.0
 10
460.6265411784424
 20
-529.9433080254457
 30
0.0
 10
458.593196127078
 20
-530.7513863103103
 30
0.0
 10
458.0641436421865
 20
-534.0963953558967
 30
0.0
 10
459.9762569887334
 20
-535.1600236567319
 30
0.0
  0
SPLINE
  5
CE
330
70
100
AcDbEntity
  8
图层 1
 62
   250
420
  2299925
370
     9
100
AcDbSpline
210
0.0
220
0.0
230
1.0
 70
     8
 71
     3
 72
    59
 73
    55
 74
     0
 42
0.0000000001
 43
0.0000000001
 40
0.0
 40
0.0
 40
0.0
 40
0.0
 40
1.0
 40
1.0
 40
1.0
 40
2.0
 40
2.0
 40
2.0
 40
3.0
 40
3.0
 40
3.0
 40
4.0
 40
4.0
 40
4.0
 40
5.0
 40
5.0
 40
5.0
 40
6.0
 40
6.0
 40
6.0
 40
7.0
 40
7.0
 40
7.0
 40
8.0
 40
8.0
 40
8.0
 40
9.0
 40
9.0
 40
9.0
 40
10.0
 40
10.0
 40
10.0
 40
11.0
 40
11.0
 40
11.0
 40
12.0
 40
12.0
 40
12.0
 40
13.0
 40
13.0
 40
13.0
 40
14.0
 40
14.0
 40
14.0
 40
15.0
 40
15.0
 40
15.0
 40
16.0
 40
16.0
 40
16.0
 40
17.0
 40
17.0
 40
17.0
 40
18.0
 40
18.0
 40
18.0
 40
18.0
 10
450.1956141367209
 20
-543.1335319824484
 30
0.0
 10
447.454890049903
 20
-545.1025442658901
 30
0.0
 10
446.3866817600083
 20
-548.6110425213228
 30
0.0
 10
445.4900663180506
 20
-551.8644497570767
 30
0.0
 10
445.3206321054567
 20
-552.4792490022137
 30
0.0
 10
445.1561614557686
 20
-553.159703172023
 30
0.0
 10
445.4360690448029
 20
-553.7327108548579
 30
0.0
 10
445.7391834622976
 20
-554.3532258690029
 30
0.0
 10
446.4573602366126
 20
-554.6341130264154
 30
0.0
 10
447.1182035750626
 20
-554.8346206374263
 30
0.0
 10
450.2768160204304
 20
-555.7929805161129
 30
0.0
 10
453.9060020654014
 20
-556.1022563146089
 30
0.0
 10
456.7044034808896
 20
-554.3517604797289
 30
0.0
 10
459.5028048963777
 20
-552.6012646448489
 30
0.0
 10
460.6832316287982
 20
-548.1891437672493
 30
0.0
 10
458.2875856344562
 20
-545.9184244054759
 30
0.0
 10
457.8230519830358
 20
-545.4781141257645
 30
0.0
 10
457.1981345719195
 20
-545.131242384843
 30
0.0
 10
456.5665263958472
 20
-545.2348545512959
 30
0.0
 10
456.1033329627989
 20
-545.3108386540443
 30
0.0
 10
455.7137220408986
 20
-545.6144626817477
 30
0.0
 10
455.3565224817175
 20
-545.9189785990202
 30
0.0
 10
452.2088327790607
 20
-548.6024139991932
 30
0.0
 10
449.7450917267597
 20
-552.590492474861
 30
0.0
 10
450.3190343253445
 20
-556.6867545287768
 30
0.0
 10
450.8929769239312
 20
-560.7830165826944
 30
0.0
 10
455.5822469285776
 20
-564.2182910578958
 30
0.0
 10
459.298826427992
 20
-562.4028545414184
 30
0.0
 10
462.4641744130676
 20
-560.8566802993445
 30
0.0
 10
463.2845406065698
 20
-556.8037469453884
 30
0.0
 10
463.7255378075351
 20
-553.3086628391247
 30
0.0
 10
465.298602814184
 20
-556.8775812603671
 30
0.0
 10
465.8630690671998
 20
-560.8846329597963
 30
0.0
 10
465.3371502181872
 20
-564.7492327336768
 30
0.0
 10
465.1652168432047
 20
-566.0126488060322
 30
0.0
 10
464.8532345815765
 20
-567.3148746206971
 30
0.0
 10
464.0287045088589
 20
-568.2874646166619
 30
0.0
 10
463.3332556285713
 20
-569.1077945369943
 30
0.0
 10
462.3409871439634
 20
-569.6124791194251
 30
0.0
 10
461.3509195806527
 20
-570.0324272812594
 30
0.0
 10
456.1658907539586
 20
-572.2317149054378
 30
0.0
 10
449.9106548274831
 20
-572.5647644270829
 30
0.0
 10
445.0773738168663
 20
-569.6732625151144
 30
0.0
 10
443.5826025646856
 20
-568.7790183515062
 30
0.0
 10
442.2137507329698
 20
-567.5361989208031
 30
0.0
 10
441.6005828547112
 20
-565.9058497822134
 30
0.0
 10
440.9874149764528
 20
-564.2755006436236
 30
0.0
 10
441.3036659574445
 20
-562.2192765022555
 30
0.0
 10
442.6712693238441
 20
-561.1405391881525
 30
0.0
 10
444.1149158025545
 20
-560.0018207517568
 30
0.0
 10
446.288641864492
 20
-560.2544659661962
 30
0.0
 10
447.8409552165357
 20
-561.2399180622287
 30
0.0
 10
449.3932685685776
 20
-562.2253701582613
 30
0.0
 10
450.4663035808407
 20
-563.7926946010302
 30
0.0
 10
451.4953766049093
 20
-565.3164404091076
 30
0.0
  0
SPLINE
  5
CF
330
70
100
AcDbEntity
  8
图层 1
 62
   250
420
  2299925
370
     9
100
AcDbSpline
210
0.0
220
0.0
230
1.0
 70
     8
 71
     3
 72
    41
 73
    37
 74
     0
 42
0.0000000001
 43
0.0000000001
 40
0.0
 40
0.0
 40
0.0
 40
0.0
 40
1.0
 40
1.0
 40
1.0
 40
2.0
 40
2.0
 40
2.0
 40
3.0
 40
3.0
 40
3.0
 40
4.0
 40
4.0
 40
4.0
 40
5.0
 40
5.0
 40
5.0
 40
6.0
 40
6.0
 40
6.0
 40
7.0
 40
7.0
 40
7.0
 40
8.0
 40
8.0
 40
8.0
 40
9.0
 40
9.0
 40
9.0
 40
10.0
 40
10.0
 40
10.0
 40
11.0
 40
11.0
 40
11.0
 40
12.0
 40
12.0
 40
12.0
 40
12.0
 10
446.0440881699087
 20
-574.6310982085033
 30
0.0
 10
449.5473020208319
 20
-574.8554061647991
 30
0.0
 10
453.0505158717533
 20
-575.0797141210969
 30
0.0
 10
456.5537297226764
 20
-575.3040220773946
 30
0.0
 10
457.2621350111749
 20
-575.349380536165
 30
0.0
 10
458.0344019722197
 20
-575.421640254377
 30
0.0
 10
458.5454895765724
 20
-575.9142708095096
 30
0.0
 10
459.0711447960984
 20
-576.4209406611025
 30
0.0
 10
459.1612602049372
 20
-577.2185300598703
 30
0.0
 10
459.2036583449553
 20
-577.9473854721437
 30
0.0
 10
459.4909308061378
 20
-582.8859163663837
 30
0.0
 10
459.0170230797375
 20
-587.8680041914304
 30
0.0
 10
457.8037967163018
 20
-592.6638026609234
 30
0.0
 10
457.6306255031741
 20
-593.3483362266342
 30
0.0
 10
457.4327292869511
 20
-594.049118408142
 30
0.0
 10
456.998036443154
 20
-594.6055502593972
 30
0.0
 10
455.7719251269282
 20
-596.1750454999583
 30
0.0
 10
453.1422813276186
 20
-595.8570470498016
 30
0.0
 10
451.69533900452
 20
-594.4884629835542
 30
0.0
 10
450.2483966814233
 20
-593.1198789173067
 30
0.0
 10
449.6791683750416
 20
-591.0887113173102
 30
0.0
 10
449.1706993912957
 20
-589.1630624071185
 30
0.0
 10
448.6868333134607
 20
-587.3305947525913
 30
0.0
 10
448.1998203571929
 20
-585.4188099417679
 30
0.0
 10
448.5776388627455
 20
-583.5615768754323
 30
0.0
 10
448.9554573682981
 20
-581.704343809095
 30
0.0
 10
450.4807868554453
 20
-579.9331206497481
 30
0.0
 10
452.3760209079373
 20
-579.9453424381535
 30
0.0
 10
454.3978064925213
 20
-579.9583803382192
 30
0.0
 10
455.9344635445177
 20
-581.9973401609058
 30
0.0
 10
456.128015134309
 20
-584.0098818405567
 30
0.0
 10
456.321566724102
 20
-586.0224235202077
 30
0.0
 10
455.5307487528934
 20
-587.9846982849939
 30
0.0
 10
454.755323729305
 20
-589.8519160717114
 30
0.0
 10
454.0830311279424
 20
-589.9216316617603
 30
0.0
 10
453.4340369411511
 20
-589.2692024066691
 30
0.0
 10
453.5073004996065
 20
-588.5972871943067
 30
0.0
  0
SPLINE
  5
D0
330
70
100
AcDbEntity
  8
图层 1
 62
   250
420
  2299925
370
     9
100
AcDbSpline
210
0.0
220
0.0
230
1.0
 70
     8
 71
     3
 72
    11
 73
     7
 74
     0
 42
0.0000000001
 43
0.0000000001
 40
0.0
 40
0.0
 40
0.0
 40
0.0
 40
1.0
 40
1.0
 40
1.0
 40
2.0
 40
2.0
 40
2.0
 40
2.0
 10
259.3193150005081
 20
-260.6123954857994
 30
0.0
 10
254.3134193632859
 20
-261.2118937530959
 30
0.0
 10
251.4257992060484
 20
-266.3541815228127
 30
0.0
 10
248.3247295921738
 20
-270.3293238539954
 30
0.0
 10
244.576875589778
 20
-275.1335592772384
 30
0.0
 10
239.5928737395116
 20
-278.7966797972722
 30
0.0
 10
234.6760261955533
 20
-282.3955264350934
 30
0.0
  0
SPLINE
  5
D1
330
70
100
AcDbEntity
  8
图层 1
 62
   250
420
  2299925
370
     9
100
AcDbSpline
210
0.0
220
0.0
230
1.0
 70
     8
 71
     3
 72
    17
 73
    13
 74
     0
 42
0.0000000001
 43
0.0000000001
 40
0.0
 40
0.0
 40
0.0
 40
0.0
 40
1.0
 40
1.0
 40
1.0
 40
2.0
 40
2.0
 40
2.0
 40
3.0
 40
3.0
 40
3.0
 40
4.0
 40
4.0
 40
4.0
 40
4.0
 10
257.434092108776
 20
-251.0507957557247
 30
0.0
 10
257.6087044931465
 20
-254.1703358897603
 30
0.0
 10
257.8134730857037
 20
-257.4023497319485
 30
0.0
 10
259.2801272798533
 20
-260.1611439626631
 30
0.0
 10
260.7467814740039
 20
-262.9199381933759
 30
0.0
 10
263.8539090357144
 20
-265.0694661596126
 30
0.0
 10
266.9057457140834
 20
-264.3999043467893
 30
0.0
 10
269.1686816388119
 20
-263.9034221543734
 30
0.0
 10
270.845026869285
 20
-262.0521485159224
 30
0.0
 10
272.360620055244
 20
-260.2999095747846
 30
0.0
 10
275.3481235818945
 20
-256.8459340584741
 30
0.0
 10
278.3356271267139
 20
-253.3919586465454
 30
0.0
 10
281.3231306715343
 20
-249.9379832346176
 30
0.0
  0
SPLINE
  5
D2
330
70
100
AcDbEntity
  8
图层 1
 62
   250
420
  2299925
370
     9
100
AcDbSpline
210
0.0
220
0.0
230
1.0
 70
     8
 71
     3
 72
     8
 73
     4
 74
     0
 42
0.0000000001
 43
0.0000000001
 40
0.0
 40
0.0
 40
0.0
 40
0.0
 40
1.0
 40
1.0
 40
1.0
 40
1.0
 10
271.1827472235409
 20
-262.6411125142495
 30
0.0
 10
273.2039071989157
 20
-265.377664492903
 30
0.0
 10
276.0845507405156
 20
-267.4696384879644
 30
0.0
 10
279.3121968285286
 20
-268.5448617710381
 30
0.0
  0
SPLINE
  5
D3
330
70
100
AcDbEntity
  8
图层 1
 62
   250
420
  2299925
370
     9
100
AcDbSpline
210
0.0
220
0.0
230
1.0
 70
     8
 71
     3
 72
     8
 73
     4
 74
     0
 42
0.0000000001
 43
0.0000000001
 40
0.0
 40
0.0
 40
0.0
 40
0.0
 40
1.0
 40
1.0
 40
1.0
 40
1.0
 10
316.7871460280894
 20
-183.0361146376162
 30
0.0
 10
313.291223996861
 20
-185.7376972132424
 30
0.0
 10
308.9014437994374
 20
-187.2618571451521
 30
0.0
 10
304.4835382431029
 20
-187.3080064318392
 30
0.0
  0
SPLINE
  5
D4
330
70
100
AcDbEntity
  8
图层 1
 62
   250
420
  2299925
370
     9
100
AcDbSpline
210
0.0
220
0.0
230
1.0
 70
     8
 71
     3
 72
    11
 73
     7
 74
     0
 42
0.0000000001
 43
0.0000000001
 40
0.0
 40
0.0
 40
0.0
 40
0.0
 40
1.0
 40
1.0
 40
1.0
 40
2.0
 40
2.0
 40
2.0
 40
2.0
 10
347.3779568081445
 20
-128.7356465754346
 30
0.0
 10
346.2189435541477
 20
-128.1243326718995
 30
0.0
 10
345.3222389396542
 20
-129.91972727346
 30
0.0
 10
345.2510894116877
 20
-131.2281439334965
 30
0.0
 10
345.0429439967429
 20
-135.0558142628906
 30
0.0
 10
345.1428403290265
 20
-138.9001924888152
 30
0.0
 10
345.549493184004
 20
-142.711886914979
 30
0.0
  0
SPLINE
  5
D5
330
70
100
AcDbEntity
  8
图层 1
 62
   250
420
  2299925
370
     9
100
AcDbSpline
210
0.0
220
0.0
230
1.0
 70
     8
 71
     3
 72
    17
 73
    13
 74
     0
 42
0.0000000001
 43
0.0000000001
 40
0.0
 40
0.0
 40
0.0
 40
0.0
 40
1.0
 40
1.0
 40
1.0
 40
2.0
 40
2.0
 40
2.0
 40
3.0
 40
3.0
 40
3.0
 40
4.0
 40
4.0
 40
4.0
 40
4.0
 10
383.7353801406953
 20
-145.7388545423564
 30
0.0
 10
382.0083825936854
 20
-146.8146935410768
 30
0.0
 10
380.0250166090136
 20
-148.5427825112101
 30
0.0
 10
380.6831980655297
 20
-150.4680739823507
 30
0.0
 10
381.1456230393269
 20
-151.8207504819165
 30
0.0
 10
382.7562321125497
 20
-152.4281644763696
 30
0.0
 10
384.1857666595533
 20
-152.4296919424678
 30
0.0
 10
385.615301206557
 20
-152.4312194085669
 30
0.0
 10
387.0277704083637
 20
-152.0093728211268
 30
0.0
 10
388.4551764896751
 20
-152.0873679060314
 30
0.0
 10
392.9704555752214
 20
-152.3340855765691
 30
0.0
 10
395.6320890678835
 20
-157.1223704755912
 30
0.0
 10
397.4278413273314
 20
-161.2725360989998
 30
0.0
  0
SPLINE
  5
D6
330
70
100
AcDbEntity
  8
图层 1
 62
   250
420
  2299925
370
     9
100
AcDbSpline
210
0.0
220
0.0
230
1.0
 70
     8
 71
     3
 72
    17
 73
    13
 74
     0
 42
0.0000000001
 43
0.0000000001
 40
0.0
 40
0.0
 40
0.0
 40
0.0
 40
1.0
 40
1.0
 40
1.0
 40
2.0
 40
2.0
 40
2.0
 40
3.0
 40
3.0
 40
3.0
 40
4.0
 40
4.0
 40
4.0
 40
4.0
 10
402.3034514456448
 20
-165.5897569387016
 30
0.0
 10
405.6359280070173
 20
-162.8361905642041
 30
0.0
 10
410.5630395621992
 20
-162.1774257364795
 30
0.0
 10
414.5018477797184
 20
-163.9588065594525
 30
0.0
 10
415.7200777737743
 20
-164.5097697087194
 30
0.0
 10
416.8588726553044
 20
-165.2763480189869
 30
0.0
 10
418.1622262576947
 20
-165.574529863863
 30
0.0
 10
421.8065720504019
 20
-166.4082794818378
 30
0.0
 10
425.1469577999286
 20
-163.4097560334994
 30
0.0
 10
427.4495929959412
 20
-160.464545164843
 30
0.0
 10
430.1211673784691
 20
-157.0474345494667
 30
0.0
 10
432.4299643087742
 20
-153.3468803248888
 30
0.0
 10
434.3246922009566
 20
-149.4450916795576
 30
0.0
  0
SPLINE
  5
D7
330
70
100
AcDbEntity
  8
图层 1
 62
   250
420
  2299925
370
     9
100
AcDbSpline
210
0.0
220
0.0
230
1.0
 70
     8
 71
     3
 72
    17
 73
    13
 74
     0
 42
0.0000000001
 43
0.0000000001
 40
0.0
 40
0.0
 40
0.0
 40
0.0
 40
1.0
 40
1.0
 40
1.0
 40
2.0
 40
2.0
 40
2.0
 40
3.0
 40
3.0
 40
3.0
 40
4.0
 40
4.0
 40
4.0
 40
4.0
 10
438.6395914595668
 20
-155.1835166099426
 30
0.0
 10
437.5310755330302
 20
-154.9586060426172
 30
0.0
 10
436.4409040272512
 20
-155.9281557315116
 30
0.0
 10
436.2061674031811
 20
-157.0346325907367
 30
0.0
 10
435.9714307791091
 20
-158.1411094499608
 30
0.0
 10
436.3966812455873
 20
-159.2881446490892
 30
0.0
 10
436.9908566317572
 20
-160.2506143541459
 30
0.0
 10
438.1921612510032
 20
-162.196526360336
 30
0.0
 10
440.5010622971276
 20
-163.7502032838028
 30
0.0
 10
442.6957183222221
 20
-163.1074111289199
 30
0.0
 10
444.8903743473183
 20
-162.4646189740369
 30
0.0
 10
445.6838829302942
 20
-158.8291259066109
 30
0.0
 10
443.5897018032282
 20
-157.9103755433943
 30
0.0
  0
SPLINE
  5
D8
330
70
100
AcDbEntity
  8
图层 1
 62
   250
420
  2299925
370
     9
100
AcDbSpline
210
0.0
220
0.0
230
1.0
 70
     8
 71
     3
 72
    20
 73
    16
 74
     0
 42
0.0000000001
 43
0.0000000001
 40
0.0
 40
0.0
 40
0.0
 40
0.0
 40
1.0
 40
1.0
 40
1.0
 40
2.0
 40
2.0
 40
2.0
 40
3.0
 40
3.0
 40
3.0
 40
4.0
 40
4.0
 40
4.0
 40
5.0
 40
5.0
 40
5.0
 40
5.0
 10
175.7215898197191
 20
-138.9380463589023
 30
0.0
 10
178.4323176921798
 20
-142.7760558287364
 30
0.0
 10
181.1338826728042
 20
-148.145272097091
 30
0.0
 10
178.1438675171803
 20
-151.7699336893238
 30
0.0
 10
177.3500217462606
 20
-152.7322786683425
 30
0.0
 10
176.2537709678408
 20
-153.3871670013268
 30
0.0
 10
175.1803549546512
 20
-154.0228374352473
 30
0.0
 10
170.3655809658112
 20
-156.8741143713241
 30
0.0
 10
165.5508081576599
 20
-159.7253925098957
 30
0.0
 10
160.7360353495087
 20
-162.5766706484673
 30
0.0
 10
159.5033022237758
 20
-163.3066875316926
 30
0.0
 10
158.2238442025946
 20
-164.0530391557186
 30
0.0
 10
156.801151297137
 20
-164.2218600777569
 30
0.0
 10
153.8792853417744
 20
-164.5685779760188
 30
0.0
 10
150.970452507262
 20
-161.9264928191442
 30
0.0
 10
151.0353999670424
 20
-158.9848443045912
 30
0.0
  0
SPLINE
  5
D9
330
70
100
AcDbEntity
  8
图层 1
 62
   250
420
  2299925
370
     9
100
AcDbSpline
210
0.0
220
0.0
230
1.0
 70
     8
 71
     3
 72
    20
 73
    16
 74
     0
 42
0.0000000001
 43
0.0000000001
 40
0.0
 40
0.0
 40
0.0
 40
0.0
 40
1.0
 40
1.0
 40
1.0
 40
2.0
 40
2.0
 40
2.0
 40
3.0
 40
3.0
 40
3.0
 40
4.0
 40
4.0
 40
4.0
 40
5.0
 40
5.0
 40
5.0
 40
5.0
 10
183.4029303494453
 20
-143.8175525396718
 30
0.0
 10
187.136189884729
 20
-147.0552399645939
 30
0.0
 10
187.5600851402332
 20
-153.4144876115469
 30
0.0
 10
184.2895814979911
 20
-157.1190324615063
 30
0.0
 10
182.3388717219941
 20
-159.3286249112707
 30
0.0
 10
179.4905036739719
 20
-160.4857347088182
 30
0.0
 10
176.749440839364
 20
-161.5693118212011
 30
0.0
 10
169.8800044552299
 20
-164.2848852790775
 30
0.0
 10
163.0105682760586
 20
-167.0004589838063
 30
0.0
 10
156.1411320968873
 20
-169.716032688535
 30
0.0
 10
154.0160344356627
 20
-170.5561119804024
 30
0.0
 10
151.7917097598529
 20
-171.4114563540188
 30
0.0
 10
149.5165830281366
 20
-171.1979854792134
 30
0.0
 10
147.2414562964204
 20
-170.9845146044081
 30
0.0
 10
144.9250233984066
 20
-169.3371232297058
 30
0.0
 10
144.7715725065509
 20
-167.0571617643409
 30
0.0
  0
SPLINE
  5
DA
330
70
100
AcDbEntity
  8
图层 1
 62
   250
420
  2299925
370
     9
100
AcDbSpline
210
0.0
220
0.0
230
1.0
 70
     8
 71
     3
 72
    20
 73
    16
 74
     0
 42
0.0000000001
 43
0.0000000001
 40
0.0
 40
0.0
 40
0.0
 40
0.0
 40
1.0
 40
1.0
 40
1.0
 40
2.0
 40
2.0
 40
2.0
 40
3.0
 40
3.0
 40
3.0
 40
4.0
 40
4.0
 40
4.0
 40
5.0
 40
5.0
 40
5.0
 40
5.0
 10
143.908971089766
 20
-216.2646831535976
 30
0.0
 10
146.1557666850258
 20
-214.9574232644972
 30
0.0
 10
148.4025622802846
 20
-213.650163375396
 30
0.0
 10
150.6493578755444
 20
-212.3429034862947
 30
0.0
 10
151.5090600222647
 20
-211.8427004004116
 30
0.0
 10
152.4554019551842
 20
-211.3242587213818
 30
0.0
 10
153.4397326441476
 20
-211.467030665026
 30
0.0
 10
154.8595669268197
 20
-211.6729710426489
 30
0.0
 10
155.6955397412184
 20
-213.1085293685737
 30
0.0
 10
156.7404477014479
 20
-214.0916408196854
 30
0.0
 10
158.8798859652333
 20
-216.1045586738846
 30
0.0
 10
162.2598515054978
 20
-216.2819298353934
 30
0.0
 10
165.0278322442136
 20
-215.2984072112831
 30
0.0
 10
167.7958129829294
 20
-214.3148845871729
 30
0.0
 10
170.096882181575
 20
-212.3674006329793
 30
0.0
 10
172.3305962100266
 20
-210.4596386559142
 30
0.0
  0
SPLINE
  5
DB
330
70
100
AcDbEntity
  8
图层 1
 62
   250
420
  2299925
370
     9
100
AcDbSpline
210
0.0
220
0.0
230
1.0
 70
     8
 71
     3
 72
    44
 73
    40
 74
     0
 42
0.0000000001
 43
0.0000000001
 40
0.0
 40
0.0
 40
0.0
 40
0.0
 40
1.0
 40
1.0
 40
1.0
 40
2.0
 40
2.0
 40
2.0
 40
3.0
 40
3.0
 40
3.0
 40
4.0
 40
4.0
 40
4.0
 40
5.0
 40
5.0
 40
5.0
 40
6.0
 40
6.0
 40
6.0
 40
7.0
 40
7.0
 40
7.0
 40
8.0
 40
8.0
 40
8.0
 40
9.0
 40
9.0
 40
9.0
 40
10.0
 40
10.0
 40
10.0
 40
11.0
 40
11.0
 40
11.0
 40
12.0
 40
12.0
 40
12.0
 40
13.0
 40
13.0
 40
13.0
 40
13.0
 10
146.7289516645287
 20
-187.8549384691041
 30
0.0
 10
156.3961486579801
 20
-188.5220397493613
 30
0.0
 10
166.0633456514324
 20
-189.1891410296184
 30
0.0
 10
175.7305426448829
 20
-189.8562423098756
 30
0.0
 10
176.8744811376664
 20
-189.9351817072865
 30
0.0
 10
178.0968069841583
 20
-190.0434369647037
 30
0.0
 10
178.9914091891523
 20
-190.7607329967031
 30
0.0
 10
179.9824842099424
 20
-191.5553817726104
 30
0.0
 10
180.3265828095645
 20
-192.8990370449401
 30
0.0
 10
181.0874755820659
 20
-193.9162578876221
 30
0.0
 10
182.4534382448782
 20
-195.7423913969023
 30
0.0
 10
185.047035331947
 20
-196.2839395176106
 30
0.0
 10
187.2800859854669
 20
-195.8212283804223
 30
0.0
 10
189.513136638986
 20
-195.3585172432349
 30
0.0
 10
191.4765238607133
 20
-194.0755593110252
 30
0.0
 10
193.3722071712427
 20
-192.8078836412114
 30
0.0
 10
195.7408197523082
 20
-191.2239521351257
 30
0.0
 10
198.1613117130482
 20
-189.5607720837124
 30
0.0
 10
199.7238367140198
 20
-187.1779843662961
 30
0.0
 10
202.411582355855
 20
-183.0792794588369
 30
0.0
 10
202.0334966746359
 20
-177.7288706272156
 30
0.0
 10
201.1121028844518
 20
-172.914892189211
 30
0.0
 10
200.1907090942677
 20
-168.1009137512064
 30
0.0
 10
198.8231625349199
 20
-163.1680266045068
 30
0.0
 10
199.85921690759
 20
-158.3774163871094
 30
0.0
 10
201.6192852785534
 20
-161.0659919936142
 30
0.0
 10
202.2518794446814
 20
-164.4682694609373
 30
0.0
 10
201.5758179332161
 20
-167.6098010760961
 30
0.0
 10
201.4324093459263
 20
-164.3586061504293
 30
0.0
 10
202.5369601095808
 20
-161.0678758040403
 30
0.0
 10
204.6128892272054
 20
-158.5616130433082
 30
0.0
 10
205.3612685637372
 20
-157.6580970803434
 30
0.0
 10
206.2578525923354
 20
-156.8040422153408
 30
0.0
 10
206.5693421682336
 20
-155.6729424188397
 30
0.0
 10
207.0440684701434
 20
-153.949087340452
 30
0.0
 10
205.9468282992102
 20
-152.1032051200336
 30
0.0
 10
204.4406023666324
 20
-151.1397089316706
 30
0.0
 10
202.934376434052
 20
-150.1762127433076
 30
0.0
 10
201.1051713800207
 20
-149.8952125126598
 30
0.0
 10
199.3359706714182
 20
-149.6364262733741
 30
0.0
  0
SPLINE
  5
DC
330
70
100
AcDbEntity
  8
图层 1
 62
   250
420
  2299925
370
     9
100
AcDbSpline
210
0.0
220
0.0
230
1.0
 70
     8
 71
     3
 72
    14
 73
    10
 74
     0
 42
0.0000000001
 43
0.0000000001
 40
0.0
 40
0.0
 40
0.0
 40
0.0
 40
1.0
 40
1.0
 40
1.0
 40
2.0
 40
2.0
 40
2.0
 40
3.0
 40
3.0
 40
3.0
 40
3.0
 10
298.6361198016348
 20
-102.1112619373853
 30
0.0
 10
294.0
 20
-107.0
 30
0.0
 10
304.0
 20
-108.0
 30
0.0
 10
304.0
 20
-112.0
 30
0.0
 10
305.0
 20
-118.0
 30
0.0
 10
298.0
 20
-122.0
 30
0.0
 10
292.0
 20
-123.0
 30
0.0
 10
290.0
 20
-123.0
 30
0.0
 10
288.0
 20
-120.0
 30
0.0
 10
286.1108085649121
 20
-121.3111270210756
 30
0.0
  0
SPLINE
  5
DD
330
70
100
AcDbEntity
  8
图层 1
 62
   250
420
  2299925
370
    25
100
AcDbSpline
210
0.0
220
0.0
230
1.0
 70
     8
 71
     3
 72
    26
 73
    22
 74
     0
 42
0.0000000001
 43
0.0000000001
 40
0.0
 40
0.0
 40
0.0
 40
0.0
 40
1.0
 40
1.0
 40
1.0
 40
2.0
 40
2.0
 40
2.0
 40
3.0
 40
3.0
 40
3.0
 40
4.0
 40
4.0
 40
4.0
 40
5.0
 40
5.0
 40
5.0
 40
6.0
 40
6.0
 40
6.0
 40
7.0
 40
7.0
 40
7.0
 40
7.0
 10
162.2350307479673
 20
-269.9629809221478
 30
0.0
 10
161.4315250763611
 20
-275.3289601770457
 30
0.0
 10
157.4816334563238
 20
-279.867697381309
 30
0.0
 10
152.6951751208962
 20
-282.4229217024813
 30
0.0
 10
147.9087167854686
 20
-284.9781460236536
 30
0.0
 10
142.3701349978828
 20
-285.7777412039231
 30
0.0
 10
136.9452613318672
 20
-285.8782631267258
 30
0.0
 10
131.3405155704849
 20
-285.9821148537994
 30
0.0
 10
125.3304752078638
 20
-285.2214003701956
 30
0.0
 10
121.0895208897282
 20
-281.55557621969
 30
0.0
 10
121.0895208897282
 20
-281.55557621969
 30
0.0
 10
76.54567607651188
 20
-260.6123954857994
 30
0.0
 10
76.54567607651188
 20
-260.6123954857994
 30
0.0
 10
76.54567607651188
 20
-260.6123954857994
 30
0.0
 10
86.81325138694592
 20
-296.049634316596
 30
0.0
 10
84.16588495273117
 20
-318.9877801212624
 30
0.0
 10
84.16588495273117
 20
-318.9877801212624
 30
0.0
 10
94.29405510976085
 20
-323.6750785155146
 30
0.0
 10
94.29405510976085
 20
-323.6750785155146
 30
0.0
 10
94.29405510976085
 20
-323.6750785155146
 30
0.0
 10
118.9409950836561
 20
-335.0816366964773
 30
0.0
 10
118.9409950836561
 20
-335.0816366964773
 30
0.0
  0
SPLINE
  5
DE
330
70
100
AcDbEntity
  8
图层 1
 62
   250
420
  2299925
370
     9
100
AcDbSpline
210
0.0
220
0.0
230
1.0
 70
     8
 71
     3
 72
    23
 73
    19
 74
     0
 42
0.0000000001
 43
0.0000000001
 40
0.0
 40
0.0
 40
0.0
 40
0.0
 40
1.0
 40
1.0
 40
1.0
 40
2.0
 40
2.0
 40
2.0
 40
3.0
 40
3.0
 40
3.0
 40
4.0
 40
4.0
 40
4.0
 40
5.0
 40
5.0
 40
5.0
 40
6.0
 40
6.0
 40
6.0
 40
6.0
 10
131.2126799583784
 20
-318.1461219648554
 30
0.0
 10
132.0
 20
-321.0
 30
0.0
 10
132.0
 20
-324.0
 30
0.0
 10
136.0
 20
-325.0
 30
0.0
 10
142.0
 20
-327.0
 30
0.0
 10
149.0
 20
-328.0
 30
0.0
 10
153.0
 20
-322.0
 30
0.0
 10
156.0
 20
-318.0
 30
0.0
 10
154.0
 20
-312.0
 30
0.0
 10
157.0
 20
-308.0
 30
0.0
 10
158.0
 20
-307.0
 30
0.0
 10
160.0
 20
-307.0
 30
0.0
 10
161.0
 20
-307.0
 30
0.0
 10
165.0
 20
-308.0
 30
0.0
 10
166.0
 20
-314.0
 30
0.0
 10
170.0
 20
-312.0
 30
0.0
 10
179.0
 20
-305.0
 30
0.0
 10
178.0
 20
-291.0
 30
0.0
 10
175.6900041746476
 20
-281.3770430984332
 30
0.0
  0
SPLINE
  5
DF
330
70
100
AcDbEntity
  8
图层 1
 62
   250
420
  2299925
370
     9
100
AcDbSpline
210
0.0
220
0.0
230
1.0
 70
     8
 71
     3
 72
    23
 73
    19
 74
     0
 42
0.0000000001
 43
0.0000000001
 40
0.0
 40
0.0
 40
0.0
 40
0.0
 40
1.0
 40
1.0
 40
1.0
 40
2.0
 40
2.0
 40
2.0
 40
3.0
 40
3.0
 40
3.0
 40
4.0
 40
4.0
 40
4.0
 40
5.0
 40
5.0
 40
5.0
 40
6.0
 40
6.0
 40
6.0
 40
6.0
 10
188.9486832130696
 20
-341.2324355205647
 30
0.0
 10
190.7224276914812
 20
-340.7478701877144
 30
0.0
 10
192.6791780659814
 20
-341.7084759070585
 30
0.0
 10
193.721837954472
 20
-343.2230165613264
 30
0.0
 10
194.7644978429634
 20
-344.7375572155924
 30
0.0
 10
195.009625149506
 20
-346.6845086272724
 30
0.0
 10
194.8054758895732
 20
-348.5118827313254
 30
0.0
 10
194.7156166997783
 20
-349.316233519613
 30
0.0
 10
194.6056245742857
 20
-350.2828929217094
 30
0.0
 10
195.2371681530921
 20
-350.7890632311801
 30
0.0
 10
195.5484023385834
 20
-351.0385087083887
 30
0.0
 10
195.9665603527264
 20
-351.099512300375
 30
0.0
 10
196.3637165670716
 20
-351.1363307304628
 30
0.0
 10
203.4555318465464
 20
-351.7937636046063
 30
0.0
 10
210.0152414899558
 20
-347.6866881044271
 30
0.0
 10
215.9493035311998
 20
-343.7480384318924
 30
0.0
 10
214.5734066959894
 20
-341.1773683066412
 30
0.0
 10
213.1975098239272
 20
-338.6066982205502
 30
0.0
 10
211.821612951866
 20
-336.0360281344583
 30
0.0
  0
SPLINE
  5
E0
330
70
100
AcDbEntity
  8
图层 1
 62
   250
420
  2299925
370
     9
100
AcDbSpline
210
0.0
220
0.0
230
1.0
 70
     8
 71
     3
 72
    11
 73
     7
 74
     0
 42
0.0000000001
 43
0.0000000001
 40
0.0
 40
0.0
 40
0.0
 40
0.0
 40
1.0
 40
1.0
 40
1.0
 40
2.0
 40
2.0
 40
2.0
 40
2.0
 10
193.1683839220359
 20
-328.7850735040638
 30
0.0
 10
196.179655975332
 20
-331.9450551478139
 30
0.0
 10
200.6890574417684
 20
-333.6107997844047
 30
0.0
 10
205.0314623783525
 20
-333.1672203275721
 30
0.0
 10
209.3738673149374
 20
-332.7236408707404
 30
0.0
 10
213.4533323020832
 20
-330.1805380024944
 30
0.0
 10
215.7634882497496
 20
-326.4769690662843
 30
0.0
  0
SPLINE
  5
E1
330
70
100
AcDbEntity
  8
图层 1
 62
   250
420
  2299925
370
     9
100
AcDbSpline
210
0.0
220
0.0
230
1.0
 70
     8
 71
     3
 72
     8
 73
     4
 74
     0
 42
0.0000000001
 43
0.0000000001
 40
0.0
 40
0.0
 40
0.0
 40
0.0
 40
1.0
 40
1.0
 40
1.0
 40
1.0
 10
235.7645461482371
 20
-325.1971554791771
 30
0.0
 10
239.8112065435671
 20
-322.9398961283441
 30
0.0
 10
243.9608320401712
 20
-320.8672365275925
 30
0.0
 10
248.196197874282
 20
-318.9877801212624
 30
0.0
  0
SPLINE
  5
E2
330
70
100
AcDbEntity
  8
图层 1
 62
   250
420
  2299925
370
    35
100
AcDbSpline
210
0.0
220
0.0
230
1.0
 70
     8
 71
     3
 72
    32
 73
    28
 74
     0
 42
0.0000000001
 43
0.0000000001
 40
0.0
 40
0.0
 40
0.0
 40
0.0
 40
1.0
 40
1.0
 40
1.0
 40
2.0
 40
2.0
 40
2.0
 40
3.0
 40
3.0
 40
3.0
 40
4.0
 40
4.0
 40
4.0
 40
5.0
 40
5.0
 40
5.0
 40
6.0
 40
6.0
 40
6.0
 40
7.0
 40
7.0
 40
7.0
 40
8.0
 40
8.0
 40
8.0
 40
9.0
 40
9.0
 40
9.0
 40
9.0
 10
246.7037037037026
 20
-638.9629629629653
 30
0.0
 10
248.1851851851834
 20
-621.1851851851861
 30
0.0
 10
238.3573445130123
 20
-513.8612293187925
 30
0.0
 10
236.3333333333321
 20
-512.2962962962993
 30
0.0
 10
236.3333333333321
 20
-512.2962962962993
 30
0.0
 10
248.196197874282
 20
-520.2368847040197
 30
0.0
 10
248.196197874282
 20
-520.2368847040197
 30
0.0
 10
248.196197874282
 20
-520.2368847040197
 30
0.0
 10
262.4444444444435
 20
-520.2368847040197
 30
0.0
 10
262.4444444444435
 20
-520.2368847040197
 30
0.0
 10
262.4444444444435
 20
-520.2368847040197
 30
0.0
 10
304.4835382431029
 20
-489.3421647917039
 30
0.0
 10
304.4835382431029
 20
-489.3421647917039
 30
0.0
 10
304.4835382431029
 20
-489.3421647917039
 30
0.0
 10
312.6420672661043
 20
-467.8518518518558
 30
0.0
 10
312.6420672661043
 20
-467.8518518518558
 30
0.0
 10
312.6420672661043
 20
-467.8518518518558
 30
0.0
 10
326.427569581414
 20
-476.2894186996527
 30
0.0
 10
326.427569581414
 20
-476.2894186996527
 30
0.0
 10
326.427569581414
 20
-476.2894186996527
 30
0.0
 10
326.538768787872
 20
-487.2574262295911
 30
0.0
 10
326.538768787872
 20
-487.2574262295911
 30
0.0
 10
326.538768787872
 20
-487.2574262295911
 30
0.0
 10
331.0597407385831
 20
-476.7407407407445
 30
0.0
 10
331.0597407385831
 20
-476.7407407407445
 30
0.0
 10
331.0597407385831
 20
-476.7407407407445
 30
0.0
 10
336.3333435058594
 20
-490.8148148148175
 30
0.0
 10
336.3333435058594
 20
-490.8148148148175
 30
0.0
  0
LWPOLYLINE
  5
E3
330
70
100
AcDbEntity
  8
图层 1
 62
   250
420
  2299925
370
    35
100
AcDbPolyline
 90
        5
 70
     0
 43
0.0
 10
397.8148148148139
 20
-463.1002682308608
 10
392.704133052328
 20
-468.0692152647424
 10
380.553929577276
 20
-479.8824566920575
 10
366.7671037212276
 20
-508.385597541901
 10
370.4074074074069
 20
-485.7429328863799
  0
SPLINE
  5
E4
330
70
100
AcDbEntity
  8
图层 1
 62
   250
420
  2299925
370
    70
100
AcDbSpline
210
0.0
220
0.0
230
1.0
 70
     9
 71
     3
 72
    68
 73
    64
 74
     0
 42
0.0000000001
 43
0.0000000001
 40
0.0
 40
0.0
 40
0.0
 40
0.0
 40
1.0
 40
1.0
 40
1.0
 40
2.0
 40
2.0
 40
2.0
 40
3.0
 40
3.0
 40
3.0
 40
4.0
 40
4.0
 40
4.0
 40
5.0
 40
5.0
 40
5.0
 40
6.0
 40
6.0
 40
6.0
 40
7.0
 40
7.0
 40
7.0
 40
8.0
 40
8.0
 40
8.0
 40
9.0
 40
9.0
 40
9.0
 40
10.0
 40
10.0
 40
10.0
 40
11.0
 40
11.0
 40
11.0
 40
12.0
 40
12.0
 40
12.0
 40
13.0
 40
13.0
 40
13.0
 40
14.0
 40
14.0
 40
14.0
 40
15.0
 40
15.0
 40
15.0
 40
16.0
 40
16.0
 40
16.0
 40
17.0
 40
17.0
 40
17.0
 40
18.0
 40
18.0
 40
18.0
 40
19.0
 40
19.0
 40
19.0
 40
20.0
 40
20.0
 40
20.0
 40
21.0
 40
21.0
 40
21.0
 40
21.0
 10
182.6986083984384
 20
-312.909912109375
 30
0.0
 10
180.1874389648437
 20
-311.5831298828134
 30
0.0
 10
179.7628784179687
 20
-308.4175415039063
 30
0.0
 10
180.9048461914062
 20
-306.0689697265634
 30
0.0
 10
181.0111694335937
 20
-305.8505249023438
 30
0.0
 10
181.1085815429687
 20
-305.6275634765634
 30
0.0
 10
181.2138671875
 20
-305.4087524414062
 30
0.0
 10
181.3560180664062
 20
-305.0537109375
 30
0.0
 10
181.5000610351562
 20
-304.6993408203134
 30
0.0
 10
181.6426391601562
 20
-304.3445434570312
 30
0.0
 10
182.1104736328134
 20
-303.1806640625
 30
0.0
 10
182.578369140625
 20
-302.0122680664063
 30
0.0
 10
183.1270751953134
 20
-300.8837890625
 30
0.0
 10
183.4015502929687
 20
-300.3193969726563
 30
0.0
 10
183.796142578125
 20
-299.873046875
 30
0.0
 10
184.2509765625
 20
-299.5106201171884
 30
0.0
 10
183.9446411132812
 20
-298.1880493164062
 30
0.0
 10
184.1119995117187
 20
-296.7380981445312
 30
0.0
 10
184.7662963867187
 20
-295.5619506835938
 30
0.0
 10
184.66552734375
 20
-294.88427734375
 30
0.0
 10
184.5418090820312
 20
-294.215576171875
 30
0.0
 10
184.4076538085937
 20
-293.55126953125
 30
0.0
 10
184.19287109375
 20
-293.5762329101562
 30
0.0
 10
183.97216796875
 20
-293.5925903320312
 30
0.0
 10
183.74072265625
 20
-293.5925903320312
 30
0.0
 10
178.2791748046884
 20
-293.5925903320312
 30
0.0
 10
177.4552612304687
 20
-286.4140625
 30
0.0
 10
181.2456665039062
 20
-284.2223510742187
 30
0.0
 10
175.7941284179687
 20
-273.1209716796884
 30
0.0
 10
165.26171875
 20
-265.5929565429687
 30
0.0
 10
153.1502685546884
 20
-265.5929565429687
 30
0.0
 10
135.443603515625
 20
-265.5929565429687
 30
0.0
 10
121.0895385742187
 20
-281.6703491210938
 30
0.0
 10
121.0895385742187
 20
-301.5028076171884
 30
0.0
 10
121.0895385742187
 20
-303.095947265625
 30
0.0
 10
121.1918334960937
 20
-304.6614379882813
 30
0.0
 10
121.3713989257812
 20
-306.19970703125
 30
0.0
 10
122.255126953125
 20
-305.5008544921884
 30
0.0
 10
123.357421875
 20
-305.0740356445313
 30
0.0
 10
124.4815063476562
 20
-305.0740356445313
 30
0.0
 10
124.4815063476562
 20
-305.0740356445313
 30
0.0
 10
131.888916015625
 20
-305.0740356445313
 30
0.0
 10
131.888916015625
 20
-305.0740356445313
 30
0.0
 10
134.6919555664062
 20
-305.0740356445313
 30
0.0
 10
136.767578125
 20
-307.3650512695313
 30
0.0
 10
136.888916015625
 20
-310.0740356445312
 30
0.0
 10
137.0098266601562
 20
-312.7742919921884
 30
0.0
 10
134.5042724609384
 20
-315.0740356445313
 30
0.0
 10
131.888916015625
 20
-315.0740356445313
 30
0.0
 10
131.888916015625
 20
-315.0740356445313
 30
0.0
 10
124.4815063476562
 20
-315.0740356445313
 30
0.0
 10
124.4815063476562
 20
-315.0740356445313
 30
0.0
 10
124.115234375
 20
-315.0740356445313
 30
0.0
 10
123.7633666992187
 20
-315.0308837890634
 30
0.0
 10
123.4246826171884
 20
-314.9568481445312
 30
0.0
 10
128.1790161132812
 20
-328.1211547851563
 30
0.0
 10
139.6925659179687
 20
-337.41259765625
 30
0.0
 10
153.1502685546884
 20
-337.41259765625
 30
0.0
 10
167.1918334960937
 20
-337.41259765625
 30
0.0
 10
179.1160888671884
 20
-327.2975463867187
 30
0.0
 10
183.454345703125
 20
-313.2216186523438
 30
0.0
 10
183.1939697265634
 20
-313.1334228515634
 30
0.0
 10
182.9373168945312
 20
-313.0360107421884
 30
0.0
 10
182.6986083984384
 20
-312.909912109375
 30
0.0
  0
SPLINE
  5
E5
330
70
100
AcDbEntity
  8
图层 1
 62
   250
420
  2299925
370
    70
100
AcDbSpline
210
0.0
220
0.0
230
1.0
 70
     9
 71
     3
 72
    53
 73
    49
 74
     0
 42
0.0000000001
 43
0.0000000001
 40
0.0
 40
0.0
 40
0.0
 40
0.0
 40
1.0
 40
1.0
 40
1.0
 40
2.0
 40
2.0
 40
2.0
 40
3.0
 40
3.0
 40
3.0
 40
4.0
 40
4.0
 40
4.0
 40
5.0
 40
5.0
 40
5.0
 40
6.0
 40
6.0
 40
6.0
 40
7.0
 40
7.0
 40
7.0
 40
8.0
 40
8.0
 40
8.0
 40
9.0
 40
9.0
 40
9.0
 40
10.0
 40
10.0
 40
10.0
 40
11.0
 40
11.0
 40
11.0
 40
12.0
 40
12.0
 40
12.0
 40
13.0
 40
13.0
 40
13.0
 40
14.0
 40
14.0
 40
14.0
 40
15.0
 40
15.0
 40
15.0
 40
16.0
 40
16.0
 40
16.0
 40
16.0
 10
199.1043090820312
 20
-271.5039672851562
 30
0.0
 10
192.517578125
 20
-271.5039672851562
 30
0.0
 10
186.8176879882812
 20
-276.4312133789062
 30
0.0
 10
184.04833984375
 20
-283.607666015625
 30
0.0
 10
190.1791381835937
 20
-283.9254150390634
 30
0.0
 10
190.0696411132812
 20
-293.5925903320312
 30
0.0
 10
183.74072265625
 20
-293.5925903320312
 30
0.0
 10
183.2005615234384
 20
-293.5925903320312
 30
0.0
 10
182.7098388671884
 20
-293.5170288085938
 30
0.0
 10
182.2603759765634
 20
-293.3883056640634
 30
0.0
 10
182.2603149414062
 20
-293.4075927734384
 30
0.0
 10
182.25927734375
 20
-293.426513671875
 30
0.0
 10
182.25927734375
 20
-293.44580078125
 30
0.0
 10
182.25927734375
 20
-296.0055541992188
 30
0.0
 10
182.5991821289062
 20
-298.4608154296884
 30
0.0
 10
183.2177124023437
 20
-300.744873046875
 30
0.0
 10
183.4835815429687
 20
-300.25146484375
 30
0.0
 10
183.8345947265634
 20
-299.8443603515634
 30
0.0
 10
184.245361328125
 20
-299.5158081054687
 30
0.0
 10
183.5875244140634
 20
-296.669189453125
 30
0.0
 10
185.147705078125
 20
-293.2222290039062
 30
0.0
 10
188.9259033203134
 20
-293.2222290039062
 30
0.0
 10
193.97607421875
 20
-293.2222290039062
 30
0.0
 10
195.0613403320312
 20
-299.3606567382812
 30
0.0
 10
192.1995849609384
 20
-302.0184326171884
 30
0.0
 10
192.513427734375
 20
-303.2985229492187
 30
0.0
 10
192.3499145507812
 20
-304.7215576171884
 30
0.0
 10
191.7617797851562
 20
-305.9309692382813
 30
0.0
 10
191.6553955078134
 20
-306.1497802734384
 30
0.0
 10
191.5579223632812
 20
-306.3728637695313
 30
0.0
 10
191.4524536132812
 20
-306.5919799804687
 30
0.0
 10
191.3104858398437
 20
-306.94677734375
 30
0.0
 10
191.16650390625
 20
-307.3009033203134
 30
0.0
 10
191.0239868164062
 20
-307.6554565429688
 30
0.0
 10
190.5562133789062
 20
-308.8192749023438
 30
0.0
 10
190.0883178710937
 20
-309.9877319335937
 30
0.0
 10
189.53955078125
 20
-311.1161499023438
 30
0.0
 10
189.4959106445312
 20
-311.2059326171884
 30
0.0
 10
189.4305419921884
 20
-311.273681640625
 30
0.0
 10
189.3815307617187
 20
-311.3582763671884
 30
0.0
 10
192.1287841796884
 20
-313.8930053710938
 30
0.0
 10
195.4815063476562
 20
-315.3876953125
 30
0.0
 10
199.1043090820312
 20
-315.3876953125
 30
0.0
 10
208.4075317382812
 20
-315.3876953125
 30
0.0
 10
215.9492797851562
 20
-305.56396484375
 30
0.0
 10
215.9492797851562
 20
-293.44580078125
 30
0.0
 10
215.9492797851562
 20
-281.32763671875
 30
0.0
 10
208.4075317382812
 20
-271.5039672851562
 30
0.0
 10
199.1043090820312
 20
-271.5039672851562
 30
0.0
  0
LWPOLYLINE
  5
E6
330
70
100
AcDbEntity
  8
图层 1
 62
   250
420
  2299925
370
    70
100
AcDbPolyline
 90
        4
 70
     0
 43
0.0
 10
394.4009574948413
 20
-416.4115226337489
 10
388.9908854523037
 20
-430.444444444447
 10
377.0605709867559
 20
-433.777777777781
 10
364.3280227260075
 20
-430.444444444447
  0
LWPOLYLINE
  5
E7
330
70
100
AcDbEntity
  8
图层 1
 62
   250
420
  2299925
370
    35
100
AcDbPolyline
 90
        4
 70
     0
 43
0.0
 10
400.7777777777773
 20
-415.2699721871949
 10
388.9908854523037
 20
-433.777777777781
 10
377.0605709867559
 20
-439.1990448636279
 10
364.1111111111095
 20
-433.777777777781
  0
SPLINE
  5
E8
330
70
100
AcDbEntity
  8
图层 1
 62
   250
420
  2299925
370
    35
100
AcDbSpline
210
0.0
220
0.0
230
1.0
 70
     8
 71
     3
 72
     8
 73
     4
 74
     0
 42
0.0000000001
 43
0.0000000001
 40
0.0
 40
0.0
 40
0.0
 40
0.0
 40
1.0
 40
1.0
 40
1.0
 40
1.0
 10
326.538768787872
 20
-426.502189221981
 30
0.0
 10
336.3333435058594
 20
-424.1481481481514
 30
0.0
 10
337.131943927583
 20
-424.0245726063749
 30
0.0
 10
350.7299833267953
 20
-427.234508525411
 30
0.0
  0
LWPOLYLINE
  5
E9
330
70
100
AcDbEntity
  8
图层 1
 62
   250
420
  2299925
370
    35
100
AcDbPolyline
 90
        3
 70
     0
 43
0.0
 10
373.5620754189276
 20
-437.7344062567681
 10
366.7671037212276
 20
-440.4444444444489
 10
360.0370370370365
 20
-450.9462669751574
  0
SPLINE
  5
EA
330
70
100
AcDbEntity
  8
图层 1
 62
     7
420
 16777215
370
    35
100
AcDbSpline
210
0.0
220
0.0
230
1.0
 70
     9
 71
     3
 72
    20
 73
    16
 74
     0
 42
0.0000000001
 43
0.0000000001
 40
0.0
 40
0.0
 40
0.0
 40
0.0
 40
1.0
 40
1.0
 40
1.0
 40
2.0
 40
2.0
 40
2.0
 40
3.0
 40
3.0
 40
3.0
 40
4.0
 40
4.0
 40
4.0
 40
5.0
 40
5.0
 40
5.0
 40
5.0
 10
183.2367553710937
 20
-432.839599609375
 30
0.0
 10
182.7749633789062
 20
-434.8450317382812
 30
0.0
 10
181.216064453125
 20
-436.5555419921874
 30
0.0
 10
178.5555419921884
 20
-436.5555419921874
 30
0.0
 10
172.232666015625
 20
-436.5555419921874
 30
0.0
 10
172.12744140625
 20
-426.9381713867187
 30
0.0
 10
178.2007446289062
 20
-426.5729370117187
 30
0.0
 10
178.4163208007812
 20
-424.2646484375
 30
0.0
 10
180.0139770507812
 20
-422.111083984375
 30
0.0
 10
183.0
 20
-422.111083984375
 30
0.0
 10
186.3798828125
 20
-422.111083984375
 30
0.0
 10
187.981201171875
 20
-424.8608398437499
 30
0.0
 10
187.8150024414062
 20
-427.4766235351562
 30
0.0
 10
187.9789428710937
 20
-430.031982421875
 30
0.0
 10
186.449951171875
 20
-432.7112426757812
 30
0.0
 10
183.2367553710937
 20
-432.839599609375
 30
0.0
  0
SPLINE
  5
EB
330
70
100
AcDbEntity
  8
图层 1
 62
     7
420
 16777215
370
    35
100
AcDbSpline
210
0.0
220
0.0
230
1.0
 70
    11
 71
     3
 72
    35
 73
    31
 74
     0
 42
0.0000000001
 43
0.0000000001
 40
0.0
 40
0.0
 40
0.0
 40
0.0
 40
1.0
 40
1.0
 40
1.0
 40
2.0
 40
2.0
 40
2.0
 40
3.0
 40
3.0
 40
3.0
 40
4.0
 40
4.0
 40
4.0
 40
5.0
 40
5.0
 40
5.0
 40
6.0
 40
6.0
 40
6.0
 40
7.0
 40
7.0
 40
7.0
 40
8.0
 40
8.0
 40
8.0
 40
9.0
 40
9.0
 40
9.0
 40
10.0
 40
10.0
 40
10.0
 40
10.0
 10
200.9302978515634
 20
-418.1453857421884
 30
0.0
 10
200.9302978515634
 20
-418.1453857421884
 30
0.0
 10
203.6848754882813
 20
-392.4697875976562
 30
0.0
 10
203.6848754882813
 20
-392.4697875976562
 30
0.0
 10
203.6848754882813
 20
-392.4697875976562
 30
0.0
 10
181.5673217773437
 20
-407.1061401367187
 30
0.0
 10
181.5673217773437
 20
-407.1061401367187
 30
0.0
 10
181.5673217773437
 20
-407.1061401367187
 30
0.0
 10
157.9246215820312
 20
-397.99609375
 30
0.0
 10
157.9246215820312
 20
-397.99609375
 30
0.0
 10
157.9246215820312
 20
-397.99609375
 30
0.0
 10
163.9094848632812
 20
-422.6162719726562
 30
0.0
 10
163.9094848632812
 20
-422.6162719726562
 30
0.0
 10
163.9094848632812
 20
-422.6162719726562
 30
0.0
 10
146.5429077148437
 20
-442.6614990234375
 30
0.0
 10
146.5429077148437
 20
-442.6614990234375
 30
0.0
 10
146.5429077148437
 20
-442.6614990234375
 30
0.0
 10
172.3593139648437
 20
-443.2412109374999
 30
0.0
 10
172.3593139648437
 20
-443.2412109374999
 30
0.0
 10
172.3593139648437
 20
-443.2412109374999
 30
0.0
 10
185.2688598632812
 20
-464.7399291992187
 30
0.0
 10
185.2688598632812
 20
-464.7399291992187
 30
0.0
 10
185.2688598632812
 20
-464.7399291992187
 30
0.0
 10
195.2394409179687
 20
-440.4780883789062
 30
0.0
 10
195.2394409179687
 20
-440.4780883789062
 30
0.0
 10
195.2394409179687
 20
-440.4780883789062
 30
0.0
 10
220.5845336914062
 20
-433.7197265624999
 30
0.0
 10
220.5845336914062
 20
-433.7197265624999
 30
0.0
 10
220.5845336914062
 20
-433.7197265624999
 30
0.0
 10
200.9302978515634
 20
-418.1453857421884
 30
0.0
 10
200.9302978515634
 20
-418.1453857421884
 30
0.0
  0
HATCH
  5
EC
330
70
100
AcDbEntity
  8
图层 1
 62
   250
420
  2299925
440
 33554687
100
AcDbHatch
 10
0.0
 20
0.0
 30
0.0
210
0.0
220
0.0
230
1.0
  2
SOLID
 70
     1
 71
     1
 91
        2
 92
        1
 93
        1
 72
     4
 94
        3
 73
     0
 74
     0
 95
       20
 96
       16
 40
0.0
 40
0.0
 40
0.0
 40
0.0
 40
1.0
 40
1.0
 40
1.0
 40
2.0
 40
2.0
 40
2.0
 40
3.0
 40
3.0
 40
3.0
 40
4.0
 40
4.0
 40
4.0
 40
5.0
 40
5.0
 40
5.0
 40
5.0
 10
183.2367553710937
 20
-432.839599609375
 10
182.7749633789062
 20
-434.8450317382812
 10
181.216064453125
 20
-436.5555419921874
 10
178.5555419921884
 20
-436.5555419921874
 10
172.232666015625
 20
-436.5555419921874
 10
172.12744140625
 20
-426.9381713867187
 10
178.2007446289062
 20
-426.5729370117187
 10
178.4163208007812
 20
-424.2646484375
 10
180.0139770507812
 20
-422.111083984375
 10
183.0
 20
-422.111083984375
 10
186.3798828125
 20
-422.111083984375
 10
187.981201171875
 20
-424.8608398437499
 10
187.8150024414062
 20
-427.4766235351562
 10
187.9789428710937
 20
-430.031982421875
 10
186.449951171875
 20
-432.7112426757812
 10
183.2367553710937
 20
-432.839599609375
 97
        0
 97
        1
330
EA
 92
        1
 93
        1
 72
     4
 94
        3
 73
     0
 74
     0
 95
       35
 96
       31
 40
0.0
 40
0.0
 40
0.0
 40
0.0
 40
1.0
 40
1.0
 40
1.0
 40
2.0
 40
2.0
 40
2.0
 40
3.0
 40
3.0
 40
3.0
 40
4.0
 40
4.0
 40
4.0
 40
5.0
 40
5.0
 40
5.0
 40
6.0
 40
6.0
 40
6.0
 40
7.0
 40
7.0
 40
7.0
 40
8.0
 40
8.0
 40
8.0
 40
9.0
 40
9.0
 40
9.0
 40
10.0
 40
10.0
 40
10.0
 40
10.0
 10
200.9302978515634
 20
-418.1453857421884
 10
200.9302978515634
 20
-418.1453857421884
 10
203.6848754882813
 20
-392.4697875976562
 10
203.6848754882813
 20
-392.4697875976562
 10
203.6848754882813
 20
-392.4697875976562
 10
181.5673217773437
 20
-407.1061401367187
 10
181.5673217773437
 20
-407.1061401367187
 10
181.5673217773437
 20
-407.1061401367187
 10
157.9246215820312
 20
-397.99609375
 10
157.9246215820312
 20
-397.99609375
 10
157.9246215820312
 20
-397.99609375
 10
163.9094848632812
 20
-422.6162719726562
 10
163.9094848632812
 20
-422.6162719726562
 10
163.9094848632812
 20
-422.6162719726562
 10
146.5429077148437
 20
-442.6614990234375
 10
146.5429077148437
 20
-442.6614990234375
 10
146.5429077148437
 20
-442.6614990234375
 10
172.3593139648437
 20
-443.2412109374999
 10
172.3593139648437
 20
-443.2412109374999
 10
172.3593139648437
 20
-443.2412109374999
 10
185.2688598632812
 20
-464.7399291992187
 10
185.2688598632812
 20
-464.7399291992187
 10
185.2688598632812
 20
-464.7399291992187
 10
195.2394409179687
 20
-440.4780883789062
 10
195.2394409179687
 20
-440.4780883789062
 10
195.2394409179687
 20
-440.4780883789062
 10
220.5845336914062
 20
-433.7197265624999
 10
220.5845336914062
 20
-433.7197265624999
 10
220.5845336914062
 20
-433.7197265624999
 10
200.9302978515634
 20
-418.1453857421884
 10
200.9302978515634
 20
-418.1453857421884
 97
        0
 97
        1
330
EB
 75
     2
 76
     1
 98
        1
 10
0.0
 20
0.0
450
        0
451
        0
460
0.0
461
0.0
452
        0
462
0.0
453
        0
470

  0
LWPOLYLINE
  5
ED
330
70
100
AcDbEntity
  8
图层 1
 62
   250
420
  2299925
370
    25
100
AcDbPolyline
 90
       10
 70
     1
 43
0.0
 10
355.3835101819168
 20
-193.0370370370401
 10
344.3140733202854
 20
-188.0777696026571
 10
333.9533145006844
 20
-194.3850227766988
 10
335.2492140018003
 20
-182.3248648008521
 10
326.0490092208292
 20
-174.4202460303131
 10
337.9193560201529
 20
-171.9259259259288
 10
342.5940755816537
 20
-160.7333496835854
 10
348.6344538607682
 20
-171.2519330560999
 10
360.7237942186221
 20
-172.2391592871954
 10
352.5866065006976
 20
-181.2343214292932
  0
LWPOLYLINE
  5
EE
330
70
100
AcDbEntity
  8
图层 1
 62
   250
420
  2299925
370
    25
100
AcDbPolyline
 90
       10
 70
     1
 43
0.0
 10
350.7299833267953
 20
-281.3770430984332
 10
345.6407701633744
 20
-281.5524609321446
 10
342.9001225255779
 20
-285.8442801926176
 10
341.1606368962584
 20
-281.0583579424647
 10
336.2319675261533
 20
-279.7780922359434
 10
340.2461194477128
 20
-276.644811784121
 10
339.9406818954722
 20
-271.5617448023868
 10
344.1610498483206
 20
-274.4111932370288
 10
348.9009484297021
 20
-272.5499507817467
 10
347.4951273480328
 20
-277.4442872153668
  0
LWPOLYLINE
  5
EF
330
70
100
AcDbEntity
  8
图层 1
 62
   250
420
  2299925
370
    70
100
AcDbPolyline
 90
       10
 70
     1
 43
0.0
 10
165.2436632039689
 20
-265.5929871426433
 10
142.1014772211174
 20
-259.488023496272
 10
123.9526953992927
 20
-275.0910062743287
 10
122.6075321012322
 20
-251.1949419772518
 10
102.1599316463744
 20
-238.7560116041468
 10
124.4707609906063
 20
-230.0923953175716
 10
129.9822307429495
 20
-206.8017307852433
 10
145.1162448929444
 20
-225.3433857517293
 10
168.9701209827171
 20
-223.3878938232838
 10
156.012626769404
 20
-243.5108830868203
  0
CIRCLE
  5
F0
330
70
100
AcDbEntity
  8
图层 1
 62
   250
420
  2299925
370
    70
100
AcDbCircle
 10
485.6083460724935
 20
-297.7252143645028
 30
0.0
 40
32.13222721969555
  0
CIRCLE
  5
F1
330
70
100
AcDbEntity
  8
图层 1
 62
   250
420
  2299925
370
    70
100
AcDbCircle
 10
487.3072787028195
 20
-350.6478217070371
 30
0.0
 40
41.26319053568976
  0
SPLINE
  5
F2
330
70
100
AcDbEntity
  8
图层 1
 62
   250
420
  2299925
370
    70
100
AcDbSpline
210
0.0
220
0.0
230
1.0
 70
    11
 71
     3
 72
    20
 73
    16
 74
     0
 42
0.0000000001
 43
0.0000000001
 40
0.0
 40
0.0
 40
0.0
 40
0.0
 40
1.0
 40
1.0
 40
1.0
 40
2.0
 40
2.0
 40
2.0
 40
3.0
 40
3.0
 40
3.0
 40
4.0
 40
4.0
 40
4.0
 40
5.0
 40
5.0
 40
5.0
 40
5.0
 10
487.3072787028195
 20
-418.3937088014909
 30
0.0
 10
487.3072787028195
 20
-443.0844597903597
 30
0.0
 10
470.2640451266961
 20
-463.1002682308608
 30
0.0
 10
449.2401510619601
 20
-463.1002682308608
 30
0.0
 10
434.062841825762
 20
-463.1002682308608
 30
0.0
 10
420.9600562136947
 20
-452.6690175415151
 30
0.0
 10
414.8462293185676
 20
-437.5780964777659
 30
0.0
 10
412.4910682677454
 20
-431.7647899972216
 30
0.0
 10
411.1730234210972
 20
-425.2600186150902
 30
0.0
 10
411.1730234210972
 20
-418.3937088014909
 30
0.0
 10
411.1730234210972
 20
-393.7029578126221
 30
0.0
 10
428.2162569972206
 20
-373.6871493721192
 30
0.0
 10
449.2401510619601
 20
-373.6871493721192
 30
0.0
 10
470.2640451266961
 20
-373.6871493721192
 30
0.0
 10
487.3072787028195
 20
-393.7029578126221
 30
0.0
 10
487.3072787028195
 20
-418.3937088014909
 30
0.0
  0
LINE
  5
F3
330
70
100
AcDbEntity
  8
图层 1
 62
   250
420
  2299925
370
    35
100
AcDbLine
 10
426.7307098726487
 20
-476.2894186996527
 30
0.0
 11
411.1730234210972
 21
-427.234508525411
 31
0.0
  0
SPLINE
  5
F4
330
70
100
AcDbEntity
  8
图层 1
 62
   250
420
  2299925
370
    35
100
AcDbSpline
210
0.0
220
0.0
230
1.0
 70
     8
 71
     3
 72
    11
 73
     7
 74
     0
 42
0.0000000001
 43
0.0000000001
 40
0.0
 40
0.0
 40
0.0
 40
0.0
 40
1.0
 40
1.0
 40
1.0
 40
2.0
 40
2.0
 40
2.0
 40
2.0
 10
440.476197866581
 20
-202.9536195432729
 30
0.0
 10
440.476197866581
 20
-202.9536195432729
 30
0.0
 10
452.3439186697832
 20
-244.3870705525323
 30
0.0
 10
441.61886118867
 20
-257.2305723133049
 30
0.0
 10
441.61886118867
 20
-257.2305723133049
 30
0.0
 10
460.8858024535566
 20
-273.9762380553666
 30
0.0
 10
455.6466049304817
 20
-282.3955264350934
 30
0.0
  0
SPLINE
  5
F5
330
70
100
AcDbEntity
  8
图层 1
 62
   250
420
  2299925
370
    70
100
AcDbSpline
210
0.0
220
0.0
230
1.0
 70
     8
 71
     3
 72
    17
 73
    13
 74
     0
 42
0.0000000001
 43
0.0000000001
 40
0.0
 40
0.0
 40
0.0
 40
0.0
 40
1.0
 40
1.0
 40
1.0
 40
2.0
 40
2.0
 40
2.0
 40
3.0
 40
3.0
 40
3.0
 40
4.0
 40
4.0
 40
4.0
 40
4.0
 10
277.6933761723876
 20
-140.3031599183732
 30
0.0
 10
284.0486062520767
 20
-156.4641243620535
 30
0.0
 10
271.2460234231803
 20
-175.1094576618634
 30
0.0
 10
255.4490752006177
 20
-179.6488011958008
 30
0.0
 10
249.6421632403144
 20
-181.3174506012283
 30
0.0
 10
243.503711202663
 20
-180.8968975350399
 30
0.0
 10
237.8148148148139
 20
-178.9629629629662
 30
0.0
 10
240.4509915334247
 20
-190.2859207796564
 30
0.0
 10
244.8947110028803
 20
-205.2806396849928
 30
0.0
 10
254.6539100197669
 20
-212.476185445551
 30
0.0
 10
257.8185420951859
 20
-214.8094973161879
 30
0.0
 10
261.6381668890717
 20
-215.7608716212608
 30
0.0
 10
265.4457762471357
 20
-214.5185185185219
 30
0.0
  0
SPLINE
  5
F6
330
70
100
AcDbEntity
  8
图层 1
 62
   250
420
  2299925
370
    70
100
AcDbSpline
210
0.0
220
0.0
230
1.0
 70
     8
 71
     3
 72
    11
 73
     7
 74
     0
 42
0.0000000001
 43
0.0000000001
 40
0.0
 40
0.0
 40
0.0
 40
0.0
 40
1.0
 40
1.0
 40
1.0
 40
2.0
 40
2.0
 40
2.0
 40
2.0
 10
399.5211272589095
 20
-187.3080064318392
 30
0.0
 10
399.5211272589095
 20
-187.3080064318392
 30
0.0
 10
412.6296296296295
 20
-218.9985407877284
 30
0.0
 10
400.7777777777773
 20
-223.5154320987704
 30
0.0
 10
400.7777777777773
 20
-223.5154320987704
 30
0.0
 10
433.3973765393166
 20
-225.737654320993
 30
0.0
 10
434.8653549363243
 20
-206.4243827160544
 30
0.0
  0
SPLINE
  5
F7
330
70
100
AcDbEntity
  8
图层 1
 62
   250
420
  2299925
370
    70
100
AcDbSpline
210
0.0
220
0.0
230
1.0
 70
     8
 71
     3
 72
    11
 73
     7
 74
     0
 42
0.0000000001
 43
0.0000000001
 40
0.0
 40
0.0
 40
0.0
 40
0.0
 40
1.0
 40
1.0
 40
1.0
 40
2.0
 40
2.0
 40
2.0
 40
2.0
 10
207.4444444444434
 20
-193.0370370370401
 30
0.0
 10
207.4444444444434
 20
-193.0370370370401
 30
0.0
 10
184.0239203537376
 20
-230.7913916547895
 30
0.0
 10
199.104281395229
 20
-257.2305723133049
 30
0.0
 10
199.104281395229
 20
-257.2305723133049
 30
0.0
 10
184.0616199916376
 20
-249.7375681042086
 30
0.0
 10
177.9752544402627
 20
-275.0910062743287
 30
0.0
  0
LWPOLYLINE
  5
F8
330
70
100
AcDbEntity
  8
图层 1
 62
   250
420
  2299925
370
    35
100
AcDbPolyline
 90
        4
 70
     1
 43
0.0
 10
277.4444444435212
 20
-331.2459345892557
 10
284.0664998793618
 20
-343.6210547784412
 10
246.9976705980307
 20
-361.9633388605798
 10
240.976321143271
 20
-353.0370370370401
  0
LWPOLYLINE
  5
F9
330
70
100
AcDbEntity
  8
图层 1
 62
   250
420
  2299925
370
    35
100
AcDbPolyline
 90
        6
 70
     0
 43
0.0
 10
272.6296296296287
 20
-347.7070746734298
 10
269.4904892546856
 20
-337.4126108130031
 10
262.9999999999991
 20
-350.6478217070371
 10
255.7042827164823
 20
-344.2365150895157
 10
252.2592592592582
 20
-356.7407407407436
 10
244.8831703590886
 20
-347.7070746734298
  0
SPLINE
  5
FA
330
70
100
AcDbEntity
  8
图层 1
 62
   250
420
  2299925
370
     9
100
AcDbSpline
210
0.0
220
0.0
230
1.0
 70
     8
 71
     3
 72
    17
 73
    13
 74
     0
 42
0.0000000001
 43
0.0000000001
 40
0.0
 40
0.0
 40
0.0
 40
0.0
 40
1.0
 40
1.0
 40
1.0
 40
2.0
 40
2.0
 40
2.0
 40
3.0
 40
3.0
 40
3.0
 40
4.0
 40
4.0
 40
4.0
 40
4.0
 10
202.4489933721343
 20
-254.5185185185219
 30
0.0
 10
193.9087326677217
 20
-231.139055808082
 30
0.0
 10
207.4444444444434
 20
-206.8017307852433
 30
0.0
 10
207.4444444444434
 20
-206.8017307852433
 30
0.0
 10
207.4444444444434
 20
-206.8017307852433
 30
0.0
 10
225.9629629629644
 20
-238.9629629670562
 30
0.0
 10
231.1481481481478
 20
-240.4444444464934
 30
0.0
 10
231.1481481481478
 20
-240.4444444464934
 30
0.0
 10
224.0846478520307
 20
-204.8888888888923
 30
0.0
 10
235.7645461482371
 20
-189.3333333333366
 30
0.0
 10
235.7645461482371
 20
-189.3333333333366
 30
0.0
 10
249.4224079704163
 20
-229.3333333333357
 30
0.0
 10
257.434092108776
 20
-221.9259259259288
 30
0.0
  0
SPLINE
  5
FB
330
70
100
AcDbEntity
  8
图层 1
 62
   250
420
  2299925
370
    70
100
AcDbSpline
210
0.0
220
0.0
230
1.0
 70
     9
 71
     3
 72
    29
 73
    25
 74
     0
 42
0.0000000001
 43
0.0000000001
 40
0.0
 40
0.0
 40
0.0
 40
0.0
 40
1.0
 40
1.0
 40
1.0
 40
2.0
 40
2.0
 40
2.0
 40
3.0
 40
3.0
 40
3.0
 40
4.0
 40
4.0
 40
4.0
 40
5.0
 40
5.0
 40
5.0
 40
6.0
 40
6.0
 40
6.0
 40
7.0
 40
7.0
 40
7.0
 40
8.0
 40
8.0
 40
8.0
 40
8.0
 10
351.2403564453125
 20
-11.5555419921875
 30
0.0
 10
318.916015625
 20
-11.5555419921875
 30
0.0
 10
292.7119140625
 20
-37.7596435546875
 30
0.0
 10
292.7119140625
 20
-70.083984375
 30
0.0
 10
292.7119140625
 20
-80.71710205078124
 30
0.0
 10
295.561767578125
 20
-90.67864990234374
 30
0.0
 10
300.5178833007812
 20
-99.27233886718751
 30
0.0
 10
300.94677734375
 20
-97.21911621093751
 30
0.0
 10
302.5125122070313
 20
-95.4444580078125
 30
0.0
 10
305.2222290039062
 20
-95.4444580078125
 30
0.0
 10
311.6674194335938
 20
-95.4444580078125
 30
0.0
 10
311.65673828125
 20
-105.4444580078134
 30
0.0
 10
305.2222290039062
 20
-105.4444580078134
 30
0.0
 10
304.9993896484375
 20
-105.4444580078134
 30
0.0
 10
304.7860717773438
 20
-105.429931640625
 30
0.0
 10
304.5786743164062
 20
-105.4068603515634
 30
0.0
 10
315.2659912109375
 20
-119.5027465820312
 30
0.0
 10
332.1868286132812
 20
-128.6124267578134
 30
0.0
 10
351.2403564453125
 20
-128.6124267578134
 30
0.0
 10
383.5647583007812
 20
-128.6124267578134
 30
0.0
 10
409.7688598632812
 20
-102.4083862304687
 30
0.0
 10
409.7688598632812
 20
-70.083984375
 30
0.0
 10
409.7688598632812
 20
-37.7596435546875
 30
0.0
 10
383.5647583007812
 20
-11.5555419921875
 30
0.0
 10
351.2403564453125
 20
-11.5555419921875
 30
0.0
  0
SPLINE
  5
FC
330
70
100
AcDbEntity
  8
图层 1
 62
   250
420
  2299925
370
    35
100
AcDbSpline
210
0.0
220
0.0
230
1.0
 70
     8
 71
     3
 72
    32
 73
    28
 74
     0
 42
0.0000000001
 43
0.0000000001
 40
0.0
 40
0.0
 40
0.0
 40
0.0
 40
1.0
 40
1.0
 40
1.0
 40
2.0
 40
2.0
 40
2.0
 40
3.0
 40
3.0
 40
3.0
 40
4.0
 40
4.0
 40
4.0
 40
5.0
 40
5.0
 40
5.0
 40
6.0
 40
6.0
 40
6.0
 40
7.0
 40
7.0
 40
7.0
 40
8.0
 40
8.0
 40
8.0
 40
9.0
 40
9.0
 40
9.0
 40
9.0
 10
301.0167114753494
 20
-40.02002857257685
 30
0.0
 10
301.0167114753494
 20
-40.02002857257685
 30
0.0
 10
297.814814814812
 20
-59.7037037037071
 30
0.0
 10
323.7407407407391
 20
-73.77777777778101
 30
0.0
 10
323.7407407407391
 20
-73.77777777778101
 30
0.0
 10
317.0740740740712
 20
-89.3335878449343
 30
0.0
 10
323.7407407407391
 20
-101.5556828113576
 30
0.0
 10
323.7407407407391
 20
-101.5556828113576
 30
0.0
 10
334.8518518518522
 20
-113.7845502732534
 30
0.0
 10
339.2962962962956
 20
-111.1885714329246
 30
0.0
 10
343.7407407407391
 20
-108.5925925925958
 30
0.0
 10
330.439470106121
 20
-101.1851851851888
 30
0.0
 10
343.3864017197266
 20
-79.7037037037071
 30
0.0
 10
343.3864017197266
 20
-79.7037037037071
 30
0.0
 10
368.3215728134401
 20
-90.81481481481933
 30
0.0
 10
379.3644901104235
 20
-81.18518518518886
 30
0.0
 10
379.3644901104235
 20
-81.18518518518886
 30
0.0
 10
384.4544753068458
 20
-104.1549206436239
 30
0.0
 10
377.0605709867559
 20
-111.1885714329246
 30
0.0
 10
377.0605709867559
 20
-111.1885714329246
 30
0.0
 10
393.8344740943831
 20
-107.8521063634525
 30
0.0
 10
393.9727926027463
 20
-101.5556828113576
 30
0.0
 10
394.1111111111095
 20
-95.25925925926276
 30
0.0
 10
401.4853122842941
 20
-88.16289261755992
 30
0.0
 10
397.4278413273314
 20
-75.78515001248525
 30
0.0
 10
397.4278413273314
 20
-75.78515001248525
 30
0.0
 10
406.0567945057864
 20
-73.02149105286753
 30
0.0
 10
408.9728416973375
 20
-60.43667145236122
 30
0.0
  0
SPLINE
  5
FD
330
70
100
AcDbEntity
  8
图层 1
 62
   250
420
  2299925
370
    35
100
AcDbSpline
210
0.0
220
0.0
230
1.0
 70
     8
 71
     3
 72
     8
 73
     4
 74
     0
 42
0.0000000001
 43
0.0000000001
 40
0.0
 40
0.0
 40
0.0
 40
0.0
 40
1.0
 40
1.0
 40
1.0
 40
1.0
 10
315.5323934525441
 20
-23.71170430350867
 30
0.0
 10
315.5323934525441
 20
-23.71170430350867
 30
0.0
 10
344.4814814814799
 20
-72.18820529329878
 30
0.0
 10
397.8148148148139
 20
-40.02002857257685
 30
0.0
  0
SPLINE
  5
FE
330
70
100
AcDbEntity
  8
图层 1
 62
   250
420
  2299925
370
    35
100
AcDbSpline
210
0.0
220
0.0
230
1.0
 70
     8
 71
     3
 72
     8
 73
     4
 74
     0
 42
0.0000000001
 43
0.0000000001
 40
0.0
 40
0.0
 40
0.0
 40
0.0
 40
1.0
 40
1.0
 40
1.0
 40
1.0
 10
326.0490092208292
 20
-17.24159282723667
 30
0.0
 10
326.0490092208292
 20
-17.24159282723667
 30
0.0
 10
353.7722936028604
 20
-53.0010757608743
 30
0.0
 10
391.3491097643928
 20
-27.46350084340156
 30
0.0
  0
SPLINE
  5
FF
330
70
100
AcDbEntity
  8
图层 1
 62
   250
420
  2299925
370
    70
100
AcDbSpline
210
0.0
220
0.0
230
1.0
 70
     8
 71
     3
 72
    11
 73
     7
 74
     0
 42
0.0000000001
 43
0.0000000001
 40
0.0
 40
0.0
 40
0.0
 40
0.0
 40
1.0
 40
1.0
 40
1.0
 40
2.0
 40
2.0
 40
2.0
 40
2.0
 10
468.0545929552099
 20
-502.1138266868401
 30
0.0
 10
468.0545929552099
 20
-502.1138266868401
 30
0.0
 10
476.3333333333321
 20
-508.385597541901
 30
0.0
 10
476.3333333333321
 20
-508.385597541901
 30
0.0
 10
476.3333333333321
 20
-508.385597541901
 30
0.0
 10
477.3762168657558
 20
-564.8888888888905
 30
0.0
 10
458.7066269513961
 20
-621.1851851851879
 30
0.0
  0
SPLINE
  5
100
330
70
100
AcDbEntity
  8
图层 1
 62
   250
420
  2299925
370
    70
100
AcDbSpline
210
0.0
220
0.0
230
1.0
 70
     8
 71
     3
 72
     8
 73
     4
 74
     0
 42
0.0000000001
 43
0.0000000001
 40
0.0
 40
0.0
 40
0.0
 40
0.0
 40
1.0
 40
1.0
 40
1.0
 40
1.0
 10
80.03703703703649
 20
-527.1111111111149
 30
0.0
 10
80.03703703703649
 20
-527.1111111111149
 30
0.0
 10
160.1797109385734
 20
-541.9187967057277
 30
0.0
 10
172.3305962100266
 20
-614.5149539084213
 30
0.0
  0
SPLINE
  5
101
330
70
100
AcDbEntity
  8
图层 1
 62
   250
420
  2299925
370
    25
100
AcDbSpline
210
0.0
220
0.0
230
1.0
 70
     8
 71
     3
 72
    11
 73
     7
 74
     0
 42
0.0000000001
 43
0.0000000001
 40
0.0
 40
0.0
 40
0.0
 40
0.0
 40
1.0
 40
1.0
 40
1.0
 40
2.0
 40
2.0
 40
2.0
 40
2.0
 10
37.3030501010071
 20
-583.0659164328571
 30
0.0
 10
37.3030501010071
 20
-583.0659164328571
 30
0.0
 10
102.1284561886814
 20
-567.8518518518558
 30
0.0
 10
158.1197836498959
 20
-676.7407407407445
 30
0.0
 10
158.1197836498959
 20
-676.7407407407445
 30
0.0
 10
169.7617544297418
 20
-673.0370370370401
 30
0.0
 10
169.7617544297418
 20
-673.0370370370401
 30
0.0
  0
SPLINE
  5
102
330
70
100
AcDbEntity
  8
图层 1
 62
   250
420
  2299925
370
    70
100
AcDbSpline
210
0.0
220
0.0
230
1.0
 70
     8
 71
     3
 72
     8
 73
     4
 74
     0
 42
0.0000000001
 43
0.0000000001
 40
0.0
 40
0.0
 40
0.0
 40
0.0
 40
1.0
 40
1.0
 40
1.0
 40
1.0
 10
35.84287284784023
 20
-575.8884642637185
 30
0.0
 10
35.84287284784023
 20
-575.8884642637185
 30
0.0
 10
97.49461705838712
 20
-550.8148148148174
 30
0.0
 10
164.6917529736365
 20
-673.0370370370401
 30
0.0
  0
ELLIPSE
  5
103
330
70
100
AcDbEntity
  8
图层 1
 62
   250
420
  2299925
370
    70
100
AcDbEllipse
 10
101.5115748256351
 20
-633.4696499552351
 30
0.0
 11
-58.01553334821629
 21
58.0155333482163
 31
0.0
210
0.0
220
0.0
230
1.0
 40
0.317986325415363
 41
0.0
 42
6.283185307179585
  0
SPLINE
  5
104
330
70
100
AcDbEntity
  8
图层 1
 62
   250
420
  2299925
370
    70
100
AcDbSpline
210
0.0
220
0.0
230
1.0
 70
     9
 71
     3
 72
    29
 73
    25
 74
     0
 42
0.0000000001
 43
0.0000000001
 40
0.0
 40
0.0
 40
0.0
 40
0.0
 40
1.0
 40
1.0
 40
1.0
 40
2.0
 40
2.0
 40
2.0
 40
3.0
 40
3.0
 40
3.0
 40
4.0
 40
4.0
 40
4.0
 40
5.0
 40
5.0
 40
5.0
 40
6.0
 40
6.0
 40
6.0
 40
7.0
 40
7.0
 40
7.0
 40
8.0
 40
8.0
 40
8.0
 40
8.0
 10
185.2607421875
 20
-432.3443603515625
 30
0.0
 10
184.6837768554687
 20
-432.6329956054687
 30
0.0
 10
184.0076904296884
 20
-432.8072509765624
 30
0.0
 10
183.2369384765634
 20
-432.8388671875
 30
0.0
 10
182.7753295898437
 20
-434.8446655273437
 30
0.0
 10
181.2163696289062
 20
-436.5555419921874
 30
0.0
 10
178.5555419921884
 20
-436.5555419921874
 30
0.0
 10
172.4359741210937
 20
-436.5555419921874
 30
0.0
 10
172.140869140625
 20
-427.5466918945312
 30
0.0
 10
177.6339721679687
 20
-426.6358032226562
 30
0.0
 10
177.6339721679687
 20
-426.6358032226562
 30
0.0
 10
151.4442138671884
 20
-400.2261962890633
 30
0.0
 10
151.4442138671884
 20
-400.2261962890633
 30
0.0
 10
142.8828125
 20
-408.7163696289062
 30
0.0
 10
138.0617065429687
 20
-420.2869262695312
 30
0.0
 10
138.0617065429687
 20
-432.3443603515625
 30
0.0
 10
138.0617065429687
 20
-457.1586303710937
 30
0.0
 10
158.4807739257812
 20
-477.57763671875
 30
0.0
 10
183.2949829101562
 20
-477.57763671875
 30
0.0
 10
208.1092529296884
 20
-477.57763671875
 30
0.0
 10
228.5282592773437
 20
-457.1586303710937
 30
0.0
 10
228.5282592773437
 20
-432.3443603515625
 30
0.0
 10
228.5282592773437
 20
-432.3443603515625
 30
0.0
 10
185.2607421875
 20
-432.3443603515625
 30
0.0
 10
185.2607421875
 20
-432.3443603515625
 30
0.0
  0
SPLINE
  5
105
330
70
100
AcDbEntity
  8
图层 1
 62
     7
420
 16777215
370
    35
100
AcDbSpline
210
0.0
220
0.0
230
1.0
 70
     9
 71
     3
 72
    11
 73
     7
 74
     0
 42
0.0000000001
 43
0.0000000001
 40
0.0
 40
0.0
 40
0.0
 40
0.0
 40
1.0
 40
1.0
 40
1.0
 40
2.0
 40
2.0
 40
2.0
 40
2.0
 10
228.9259033203134
 20
-122.4814453125
 30
0.0
 10
222.4807739257812
 20
-122.4814453125
 30
0.0
 10
222.4913940429687
 20
-112.4814453125
 30
0.0
 10
228.9259033203134
 20
-112.4814453125
 30
0.0
 10
235.37109375
 20
-112.4814453125
 30
0.0
 10
235.3604736328134
 20
-122.4814453125
 30
0.0
 10
228.9259033203134
 20
-122.4814453125
 30
0.0
  0
SPLINE
  5
106
330
70
100
AcDbEntity
  8
图层 1
 62
     7
420
 16777215
370
    35
100
AcDbSpline
210
0.0
220
0.0
230
1.0
 70
     9
 71
     3
 72
    17
 73
    13
 74
     0
 42
0.0000000001
 43
0.0000000001
 40
0.0
 40
0.0
 40
0.0
 40
0.0
 40
1.0
 40
1.0
 40
1.0
 40
2.0
 40
2.0
 40
2.0
 40
3.0
 40
3.0
 40
3.0
 40
4.0
 40
4.0
 40
4.0
 40
4.0
 10
228.7450561523438
 20
-95.25921630859375
 30
0.0
 10
215.3360595703134
 20
-95.25921630859375
 30
0.0
 10
204.4659423828134
 20
-106.12939453125
 30
0.0
 10
204.4659423828134
 20
-119.5383911132812
 30
0.0
 10
204.4659423828134
 20
-132.9473876953134
 30
0.0
 10
215.3360595703134
 20
-143.8175659179687
 30
0.0
 10
228.7450561523438
 20
-143.8175659179687
 30
0.0
 10
242.1541137695312
 20
-143.8175659179687
 30
0.0
 10
253.0242309570312
 20
-132.9473876953134
 30
0.0
 10
253.0242309570312
 20
-119.5383911132812
 30
0.0
 10
253.0242309570312
 20
-106.12939453125
 30
0.0
 10
242.1541137695312
 20
-95.25921630859375
 30
0.0
 10
228.7450561523438
 20
-95.25921630859375
 30
0.0
  0
HATCH
  5
107
330
70
100
AcDbEntity
  8
图层 1
 62
   250
420
  2299925
440
 33554687
100
AcDbHatch
 10
0.0
 20
0.0
 30
0.0
210
0.0
220
0.0
230
1.0
  2
SOLID
 70
     1
 71
     1
 91
        2
 92
        1
 93
        1
 72
     4
 94
        3
 73
     0
 74
     0
 95
       11
 96
        7
 40
0.0
 40
0.0
 40
0.0
 40
0.0
 40
1.0
 40
1.0
 40
1.0
 40
2.0
 40
2.0
 40
2.0
 40
2.0
 10
228.9259033203134
 20
-122.4814453125
 10
222.4807739257812
 20
-122.4814453125
 10
222.4913940429687
 20
-112.4814453125
 10
228.9259033203134
 20
-112.4814453125
 10
235.37109375
 20
-112.4814453125
 10
235.3604736328134
 20
-122.4814453125
 10
228.9259033203134
 20
-122.4814453125
 97
        0
 97
        1
330
105
 92
        1
 93
        1
 72
     4
 94
        3
 73
     0
 74
     0
 95
       17
 96
       13
 40
0.0
 40
0.0
 40
0.0
 40
0.0
 40
1.0
 40
1.0
 40
1.0
 40
2.0
 40
2.0
 40
2.0
 40
3.0
 40
3.0
 40
3.0
 40
4.0
 40
4.0
 40
4.0
 40
4.0
 10
228.7450561523438
 20
-95.25921630859375
 10
215.3360595703134
 20
-95.25921630859375
 10
204.4659423828134
 20
-106.12939453125
 10
204.4659423828134
 20
-119.5383911132812
 10
204.4659423828134
 20
-132.9473876953134
 10
215.3360595703134
 20
-143.8175659179687
 10
228.7450561523438
 20
-143.8175659179687
 10
242.1541137695312
 20
-143.8175659179687
 10
253.0242309570312
 20
-132.9473876953134
 10
253.0242309570312
 20
-119.5383911132812
 10
253.0242309570312
 20
-106.12939453125
 10
242.1541137695312
 20
-95.25921630859375
 10
228.7450561523438
 20
-95.25921630859375
 97
        0
 97
        1
330
106
 75
     2
 76
     1
 98
        1
 10
0.0
 20
0.0
450
        0
451
        0
460
0.0
461
0.0
452
        0
462
0.0
453
        0
470

  0
ELLIPSE
  5
108
330
70
100
AcDbEntity
  8
图层 1
 62
     7
420
 16777215
370
    35
100
AcDbEllipse
 10
227.8526710409808
 20
-266.1607892938171
 30
0.0
 11
13.74155992987039
 21
0.0
 31
0.0
210
0.0
220
0.0
230
1.0
 40
0.6498692307195642
 41
0.0
 42
6.283185307179586
  0
HATCH
  5
109
330
70
100
AcDbEntity
  8
图层 1
 62
   250
420
  2299925
440
 33554687
100
AcDbHatch
 10
0.0
 20
0.0
 30
0.0
210
0.0
220
0.0
230
1.0
  2
SOLID
 70
     1
 71
     1
 91
        1
 92
        1
 93
        1
 72
     3
 10
227.8526710409808
 20
-266.1607892938171
 11
13.74155992987039
 21
0.0
 40
0.6498692307195642
 50
0.0
 51
360.0
 73
     1
 97
        1
330
108
 75
     2
 76
     1
 98
        1
 10
0.0
 20
0.0
450
        0
451
        0
460
0.0
461
0.0
452
        0
462
0.0
453
        0
470

  0
ELLIPSE
  5
10A
330
70
100
AcDbEntity
  8
图层 1
 62
     7
420
 16777215
370
    35
100
AcDbEllipse
 10
252.722222222221
 20
-246.5623071002887
 30
0.0
 11
9.722222222221944
 21
0.0
 31
0.0
210
0.0
220
0.0
230
1.0
 40
0.6292658729619168
 41
0.0
 42
6.283185307179586
  0
HATCH
  5
10B
330
70
100
AcDbEntity
  8
图层 1
 62
   250
420
  2299925
440
 33554687
100
AcDbHatch
 10
0.0
 20
0.0
 30
0.0
210
0.0
220
0.0
230
1.0
  2
SOLID
 70
     1
 71
     1
 91
        1
 92
        1
 93
        1
 72
     3
 10
252.722222222221
 20
-246.5623071002887
 11
9.722222222221944
 21
0.0
 40
0.6292658729619168
 50
0.0
 51
360.0
 73
     1
 97
        1
330
10A
 75
     2
 76
     1
 98
        1
 10
0.0
 20
0.0
450
        0
451
        0
460
0.0
461
0.0
452
        0
462
0.0
453
        0
470

  0
ELLIPSE
  5
10C
330
70
100
AcDbEntity
  8
图层 1
 62
     7
420
 16777215
370
    35
100
AcDbEllipse
 10
280.0097110473917
 20
-232.6776854052202
 30
0.0
 11
10.63109965723652
 21
0.0
 31
0.0
210
0.0
220
0.0
230
1.0
 40
0.7305696768618297
 41
0.0
 42
6.283185307179586
  0
HATCH
  5
10D
330
70
100
AcDbEntity
  8
图层 1
 62
   250
420
  2299925
440
 33554687
100
AcDbHatch
 10
0.0
 20
0.0
 30
0.0
210
0.0
220
0.0
230
1.0
  2
SOLID
 70
     1
 71
     1
 91
        1
 92
        1
 93
        1
 72
     3
 10
280.0097110473917
 20
-232.6776854052202
 11
10.63109965723652
 21
0.0
 40
0.7305696768618297
 50
0.0
 51
360.0
 73
     1
 97
        1
330
10C
 75
     2
 76
     1
 98
        1
 10
0.0
 20
0.0
450
        0
451
        0
460
0.0
461
0.0
452
        0
462
0.0
453
        0
470

  0
CIRCLE
  5
10E
330
70
100
AcDbEntity
  8
图层 1
 62
     7
420
 16777215
370
    35
100
AcDbCircle
 10
315.4555539122589
 20
-234.4874477694041
 30
0.0
 40
10.97201566989508
  0
HATCH
  5
10F
330
70
100
AcDbEntity
  8
图层 1
 62
   250
420
  2299925
440
 33554687
100
AcDbHatch
 10
0.0
 20
0.0
 30
0.0
210
0.0
220
0.0
230
1.0
  2
SOLID
 70
     1
 71
     1
 91
        1
 92
        1
 93
        1
 72
     2
 10
315.4555539122589
 20
-234.4874477694041
 40
10.97201566989508
 50
0.0
 51
360.0
 73
     1
 97
        1
330
10E
 75
     2
 76
     1
 98
        1
 10
0.0
 20
0.0
450
        0
451
        0
460
0.0
461
0.0
452
        0
462
0.0
453
        0
470

  0
SPLINE
  5
110
330
70
100
AcDbEntity
  8
图层 1
 62
     7
420
 16777215
370
    35
100
AcDbSpline
210
0.0
220
0.0
230
1.0
 70
     9
 71
     3
 72
    20
 73
    16
 74
     0
 42
0.0000000001
 43
0.0000000001
 40
0.0
 40
0.0
 40
0.0
 40
0.0
 40
1.0
 40
1.0
 40
1.0
 40
2.0
 40
2.0
 40
2.0
 40
3.0
 40
3.0
 40
3.0
 40
4.0
 40
4.0
 40
4.0
 40
5.0
 40
5.0
 40
5.0
 40
5.0
 10
201.6777954101562
 20
-281.3770141601562
 30
0.0
 10
196.8848876953134
 20
-281.3770141601562
 30
0.0
 10
192.9816284179687
 20
-287.4219970703134
 30
0.0
 10
192.7337646484384
 20
-295.0224609375
 30
0.0
 10
193.897705078125
 20
-296.5750732421884
 30
0.0
 10
194.063720703125
 20
-298.8343505859384
 30
0.0
 10
193.2322387695312
 20
-300.5907592773437
 30
0.0
 10
194.4654541015634
 20
-306.1798095703134
 30
0.0
 10
197.7759399414062
 20
-310.1900634765634
 30
0.0
 10
201.6777954101562
 20
-310.1900634765634
 30
0.0
 10
206.6306762695313
 20
-310.1900634765634
 30
0.0
 10
210.645751953125
 20
-303.7400512695313
 30
0.0
 10
210.645751953125
 20
-295.7835693359384
 30
0.0
 10
210.645751953125
 20
-287.8270263671884
 30
0.0
 10
206.6306762695313
 20
-281.3770141601562
 30
0.0
 10
201.6777954101562
 20
-281.3770141601562
 30
0.0
  0
HATCH
  5
111
330
70
100
AcDbEntity
  8
图层 1
 62
   250
420
  2299925
440
 33554687
100
AcDbHatch
 10
0.0
 20
0.0
 30
0.0
210
0.0
220
0.0
230
1.0
  2
SOLID
 70
     1
 71
     1
 91
        1
 92
        1
 93
        1
 72
     4
 94
        3
 73
     0
 74
     0
 95
       20
 96
       16
 40
0.0
 40
0.0
 40
0.0
 40
0.0
 40
1.0
 40
1.0
 40
1.0
 40
2.0
 40
2.0
 40
2.0
 40
3.0
 40
3.0
 40
3.0
 40
4.0
 40
4.0
 40
4.0
 40
5.0
 40
5.0
 40
5.0
 40
5.0
 10
201.6777954101562
 20
-281.3770141601562
 10
196.8848876953134
 20
-281.3770141601562
 10
192.9816284179687
 20
-287.4219970703134
 10
192.7337646484384
 20
-295.0224609375
 10
193.897705078125
 20
-296.5750732421884
 10
194.063720703125
 20
-298.8343505859384
 10
193.2322387695312
 20
-300.5907592773437
 10
194.4654541015634
 20
-306.1798095703134
 10
197.7759399414062
 20
-310.1900634765634
 10
201.6777954101562
 20
-310.1900634765634
 10
206.6306762695313
 20
-310.1900634765634
 10
210.645751953125
 20
-303.7400512695313
 10
210.645751953125
 20
-295.7835693359384
 10
210.645751953125
 20
-287.8270263671884
 10
206.6306762695313
 20
-281.3770141601562
 10
201.6777954101562
 20
-281.3770141601562
 97
        0
 97
        1
330
110
 75
     2
 76
     1
 98
        1
 10
0.0
 20
0.0
450
        0
451
        0
460
0.0
461
0.0
452
        0
462
0.0
453
        0
470

  0
SPLINE
  5
112
330
70
100
AcDbEntity
  8
图层 1
 62
     7
420
 16777215
370
    70
100
AcDbSpline
210
0.0
220
0.0
230
1.0
 70
     8
 71
     3
 72
    11
 73
     7
 74
     0
 42
0.0000000001
 43
0.0000000001
 40
0.0
 40
0.0
 40
0.0
 40
0.0
 40
1.0
 40
1.0
 40
1.0
 40
2.0
 40
2.0
 40
2.0
 40
2.0
 10
476.3438652401019
 20
-310.8685970489596
 30
0.0
 10
476.3438652401019
 20
-310.8685970489596
 30
0.0
 10
533.5005946103974
 20
-321.1373168415557
 30
0.0
 10
517.740573290026
 20
-370.0740740740766
 30
0.0
 10
517.740573290026
 20
-370.0740740740766
 30
0.0
 10
504.1622015627072
 20
-395.6138622679901
 30
0.0
 10
461.1162562442786
 20
-375.9180517513887
 30
0.0
  0
SPLINE
  5
113
330
70
100
AcDbEntity
  8
图层 1
 62
   250
420
  2299925
370
    35
100
AcDbSpline
210
0.0
220
0.0
230
1.0
 70
     8
 71
     3
 72
    38
 73
    34
 74
     0
 42
0.0000000001
 43
0.0000000001
 40
0.0
 40
0.0
 40
0.0
 40
0.0
 40
1.0
 40
1.0
 40
1.0
 40
2.0
 40
2.0
 40
2.0
 40
3.0
 40
3.0
 40
3.0
 40
4.0
 40
4.0
 40
4.0
 40
5.0
 40
5.0
 40
5.0
 40
6.0
 40
6.0
 40
6.0
 40
7.0
 40
7.0
 40
7.0
 40
8.0
 40
8.0
 40
8.0
 40
9.0
 40
9.0
 40
9.0
 40
10.0
 40
10.0
 40
10.0
 40
11.0
 40
11.0
 40
11.0
 40
11.0
 10
218.3524699717537
 20
-460.444444444447
 30
0.0
 10
218.3524699717537
 20
-460.444444444447
 30
0.0
 10
234.6760261955533
 20
-520.2368847040197
 30
0.0
 10
234.6760261955533
 20
-520.2368847040197
 30
0.0
 10
234.6760261955533
 20
-520.2368847040197
 30
0.0
 10
253.0242293597621
 20
-544.2571364262549
 30
0.0
 10
253.0242293597621
 20
-544.2571364262549
 30
0.0
 10
253.0242293597621
 20
-544.2571364262549
 30
0.0
 10
310.6353421355962
 20
-508.385597541901
 30
0.0
 10
310.6353421355962
 20
-508.385597541901
 30
0.0
 10
310.6353421355962
 20
-508.385597541901
 30
0.0
 10
343.3864017197266
 20
-527.1111111111149
 30
0.0
 10
343.3864017197266
 20
-527.1111111111149
 30
0.0
 10
343.3864017197266
 20
-527.1111111111149
 30
0.0
 10
355.5925925925931
 20
-511.5555555555584
 30
0.0
 10
360.0370370370365
 20
-512.2962962962993
 30
0.0
 10
364.4814814814799
 20
-513.0370370370401
 30
0.0
 10
379.3644901104235
 20
-528.8423342664263
 30
0.0
 10
379.3644901104235
 20
-528.8423342664263
 30
0.0
 10
379.3644901104235
 20
-528.8423342664263
 30
0.0
 10
398.9259259259234
 20
-473.777777777781
 30
0.0
 10
398.9259259259234
 20
-473.777777777781
 30
0.0
 10
398.9259259259234
 20
-473.777777777781
 30
0.0
 10
398.9259259259234
 20
-467.8518518518558
 30
0.0
 10
398.9259259259234
 20
-467.8518518518558
 30
0.0
 10
398.9259259259234
 20
-467.8518518518558
 30
0.0
 10
401.1301994909736
 20
-444.3403366159619
 30
0.0
 10
401.1301994909736
 20
-444.3403366159619
 30
0.0
 10
401.1301994909736
 20
-444.3403366159619
 30
0.0
 10
405.6374319394417
 20
-417.4814814814854
 30
0.0
 10
405.6374319394417
 20
-417.4814814814854
 30
0.0
 10
405.6374319394417
 20
-417.4814814814854
 30
0.0
 10
414.4604269966839
 20
-469.374060266764
 30
0.0
 10
414.4604269966839
 20
-469.374060266764
 30
0.0
  0
SPLINE
  5
114
330
70
100
AcDbEntity
  8
图层 1
 62
   250
420
  2299925
370
    70
100
AcDbSpline
210
0.0
220
0.0
230
1.0
 70
     8
 71
     3
 72
    32
 73
    28
 74
     0
 42
0.0000000001
 43
0.0000000001
 40
0.0
 40
0.0
 40
0.0
 40
0.0
 40
1.0
 40
1.0
 40
1.0
 40
2.0
 40
2.0
 40
2.0
 40
3.0
 40
3.0
 40
3.0
 40
4.0
 40
4.0
 40
4.0
 40
5.0
 40
5.0
 40
5.0
 40
6.0
 40
6.0
 40
6.0
 40
7.0
 40
7.0
 40
7.0
 40
8.0
 40
8.0
 40
8.0
 40
9.0
 40
9.0
 40
9.0
 40
9.0
 10
183.2949981689453
 20
-204.3384552001953
 30
0.0
 10
183.2949981689453
 20
-204.3384552001953
 30
0.0
 10
175.5925903320312
 20
-211.5555572509765
 30
0.0
 10
175.5925903320312
 20
-211.5555572509765
 30
0.0
 10
170.4051361083984
 20
-222.6715240478516
 30
0.0
 10
162.9935150146484
 20
-224.3347930908203
 30
0.0
 10
156.880859375
 20
-223.2207641601562
 30
0.0
 10
150.7735595703134
 20
-222.1077117919922
 30
0.0
 10
145.9629669189453
 20
-218.2222290039062
 30
0.0
 10
145.9629669189453
 20
-218.2222290039062
 30
0.0
 10
144.775650024414
 20
-217.6446838378906
 30
0.0
 10
143.1163330078134
 20
-216.6922607421884
 30
0.0
 10
141.4227142333984
 20
-215.1668090820312
 30
0.0
 10
140.3285827636719
 20
-214.1813201904297
 30
0.0
 10
137.4949493408203
 20
-211.5646362304687
 30
0.0
 10
136.082275390625
 20
-207.1357269287109
 30
0.0
 10
134.7543640136718
 20
-202.9725646972656
 30
0.0
 10
135.40087890625
 20
-199.4618072509766
 30
0.0
 10
135.6746978759765
 20
-198.0692443847656
 30
0.0
 10
137.6070404052734
 20
-188.2418823242187
 30
0.0
 10
146.9114837646484
 20
-182.1219177246094
 30
0.0
 10
147.97119140625
 20
-182.937255859375
 30
0.0
 10
149.7422790527344
 20
-184.2999267578134
 30
0.0
 10
145.2196044921884
 20
-191.4407043457031
 30
0.0
 10
145.9629669189453
 20
-189.3333282470703
 30
0.0
 10
145.9629669189453
 20
-189.3333282470703
 30
0.0
 10
145.9629669189453
 20
-189.3333282470703
 30
0.0
 10
145.9629669189453
 20
-189.3333282470703
 30
0.0
  0
SPLINE
  5
115
330
70
100
AcDbEntity
  8
图层 1
 62
   250
420
  2299925
370
    70
100
AcDbSpline
210
0.0
220
0.0
230
1.0
 70
     8
 71
     3
 72
     8
 73
     4
 74
     0
 42
0.0000000001
 43
0.0000000001
 40
0.0
 40
0.0
 40
0.0
 40
0.0
 40
1.0
 40
1.0
 40
1.0
 40
1.0
 10
193.1683839220359
 20
-216.2646831535976
 30
0.0
 10
193.1683839220359
 20
-216.2646831535976
 30
0.0
 10
154.3125252984464
 20
-235.5869245642534
 30
0.0
 10
169.7617544297418
 20
-268.5448617710381
 30
0.0
  0
SPLINE
  5
116
330
70
100
AcDbEntity
  8
图层 1
 62
   250
420
  2299925
370
    70
100
AcDbSpline
210
0.0
220
0.0
230
1.0
 70
     8
 71
     3
 72
     8
 73
     4
 74
     0
 42
0.0000000001
 43
0.0000000001
 40
0.0
 40
0.0
 40
0.0
 40
0.0
 40
1.0
 40
1.0
 40
1.0
 40
1.0
 10
259.3193150005081
 20
-111.5502714523936
 30
0.0
 10
259.3193150005081
 20
-111.5502714523936
 30
0.0
 10
267.9460271081862
 20
-156.1965758265387
 30
0.0
 10
217.6952357763148
 20
-153.5056953206785
 30
0.0
  0
LWPOLYLINE
  5
117
330
70
100
AcDbEntity
  8
图层 1
 62
   250
420
  2299925
370
    70
100
AcDbPolyline
 90
        1
 70
     0
 43
0.0
 10
242.9999999999991
 20
-189.3333333333366
  0
CIRCLE
  5
118
330
70
100
AcDbEntity
  8
图层 1
 62
   250
420
  2299925
370
    70
100
AcDbCircle
 10
347.9107831786114
 20
-237.9478202168127
 30
0.0
 40
8.614486882895674
  0
LINE
  5
119
330
70
100
AcDbEntity
  8
图层 1
 62
   250
420
  2299925
370
    70
100
AcDbLine
 10
343.7407407407409
 20
-214.5185185185219
 30
0.0
 11
347.9107831786114
 21
-229.3333333333367
 31
0.0
  0
LINE
  5
11A
330
70
100
AcDbEntity
  8
图层 1
 62
   250
420
  2299925
370
    70
100
AcDbLine
 10
356.5252700609272
 20
-234.5455246933534
 30
0.0
 11
366.7671037212276
 21
-226.0000000010259
 31
0.0
  0
LINE
  5
11B
330
70
100
AcDbEntity
  8
图层 1
 62
   250
420
  2299925
370
    70
100
AcDbLine
 10
339.2962962962956
 20
-237.9478202168129
 30
0.0
 11
329.6666666666661
 21
-237.9106400428718
 31
0.0
  0
SPLINE
  5
11C
330
70
100
AcDbEntity
  8
图层 1
 62
   250
420
  2299925
370
    70
100
AcDbSpline
210
0.0
220
0.0
230
1.0
 70
     8
 71
     3
 72
     8
 73
     4
 74
     0
 42
0.0000000001
 43
0.0000000001
 40
0.0
 40
0.0
 40
0.0
 40
0.0
 40
1.0
 40
1.0
 40
1.0
 40
1.0
 10
274.8518518518513
 20
-164.2525724535317
 30
0.0
 10
274.8518518518513
 20
-164.2525724535317
 30
0.0
 10
310.0988741857145
 20
-177.6142957206084
 30
0.0
 10
290.6408107046281
 20
-220.1277041174281
 30
0.0
  0
SPLINE
  5
11D
330
70
100
AcDbEntity
  8
图层 1
 62
   250
420
  2299925
370
    70
100
AcDbSpline
210
0.0
220
0.0
230
1.0
 70
     8
 71
     3
 72
    11
 73
     7
 74
     0
 42
0.0000000001
 43
0.0000000001
 40
0.0
 40
0.0
 40
0.0
 40
0.0
 40
1.0
 40
1.0
 40
1.0
 40
2.0
 40
2.0
 40
2.0
 40
2.0
 10
242.9999999999991
 20
-189.3333333333366
 30
0.0
 10
242.9999999999991
 20
-189.3333333333366
 30
0.0
 10
272.5749776503398
 20
-194.7994630019966
 30
0.0
 10
280.0097110473917
 20
-172.807138908407
 30
0.0
 10
280.0097110473917
 20
-172.807138908407
 30
0.0
 10
300.4125834144979
 20
-192.279418168664
 30
0.0
 10
285.675523395319
 20
-210.4596386559142
 30
0.0
  0
SPLINE
  5
11E
330
70
100
AcDbEntity
  8
图层 1
 62
   250
420
  2299925
370
    35
100
AcDbSpline
210
0.0
220
0.0
230
1.0
 70
     9
 71
     3
 72
    11
 73
     7
 74
     0
 42
0.0000000001
 43
0.0000000001
 40
0.0
 40
0.0
 40
0.0
 40
0.0
 40
1.0
 40
1.0
 40
1.0
 40
2.0
 40
2.0
 40
2.0
 40
2.0
 10
175.5925903320312
 20
-367.6666259765634
 30
0.0
 10
169.1473999023437
 20
-367.6666259765634
 30
0.0
 10
169.1580810546884
 20
-357.6666259765634
 30
0.0
 10
175.5925903320312
 20
-357.6666259765634
 30
0.0
 10
182.0377807617187
 20
-357.6666259765634
 30
0.0
 10
182.027099609375
 20
-367.6666259765634
 30
0.0
 10
175.5925903320312
 20
-367.6666259765634
 30
0.0
  0
SPLINE
  5
11F
330
70
100
AcDbEntity
  8
图层 1
 62
   250
420
  2299925
370
    35
100
AcDbSpline
210
0.0
220
0.0
230
1.0
 70
     9
 71
     3
 72
    11
 73
     7
 74
     0
 42
0.0000000001
 43
0.0000000001
 40
0.0
 40
0.0
 40
0.0
 40
0.0
 40
1.0
 40
1.0
 40
1.0
 40
2.0
 40
2.0
 40
2.0
 40
2.0
 10
175.5925903320312
 20
-378.7777709960938
 30
0.0
 10
169.1473999023437
 20
-378.7777709960938
 30
0.0
 10
169.1580810546884
 20
-368.7777709960938
 30
0.0
 10
175.5925903320312
 20
-368.7777709960938
 30
0.0
 10
182.0377807617187
 20
-368.7777709960938
 30
0.0
 10
182.027099609375
 20
-378.7777709960938
 30
0.0
 10
175.5925903320312
 20
-378.7777709960938
 30
0.0
  0
SPLINE
  5
120
330
70
100
AcDbEntity
  8
图层 1
 62
   250
420
  2299925
370
    35
100
AcDbSpline
210
0.0
220
0.0
230
1.0
 70
     9
 71
     3
 72
    11
 73
     7
 74
     0
 42
0.0000000001
 43
0.0000000001
 40
0.0
 40
0.0
 40
0.0
 40
0.0
 40
1.0
 40
1.0
 40
1.0
 40
2.0
 40
2.0
 40
2.0
 40
2.0
 10
172.629638671875
 20
-389.1481323242187
 30
0.0
 10
166.1844482421884
 20
-389.1481323242187
 30
0.0
 10
166.1951293945312
 20
-379.1481323242188
 30
0.0
 10
172.629638671875
 20
-379.1481323242188
 30
0.0
 10
179.0748291015634
 20
-379.1481323242188
 30
0.0
 10
179.0641479492187
 20
-389.1481323242187
 30
0.0
 10
172.629638671875
 20
-389.1481323242187
 30
0.0
  0
SPLINE
  5
121
330
70
100
AcDbEntity
  8
图层 1
 62
   250
420
  2299925
370
    35
100
AcDbSpline
210
0.0
220
0.0
230
1.0
 70
     9
 71
     3
 72
    17
 73
    13
 74
     0
 42
0.0000000001
 43
0.0000000001
 40
0.0
 40
0.0
 40
0.0
 40
0.0
 40
1.0
 40
1.0
 40
1.0
 40
2.0
 40
2.0
 40
2.0
 40
3.0
 40
3.0
 40
3.0
 40
4.0
 40
4.0
 40
4.0
 40
4.0
 10
171.8720703125
 20
-347.70703125
 30
0.0
 10
160.3637084960937
 20
-347.70703125
 30
0.0
 10
151.0343017578134
 20
-357.9280395507812
 30
0.0
 10
151.0343017578134
 20
-370.5362548828134
 30
0.0
 10
151.0343017578134
 20
-383.1444702148437
 30
0.0
 10
160.3637084960937
 20
-393.3654174804687
 30
0.0
 10
171.8720703125
 20
-393.3654174804687
 30
0.0
 10
183.3804931640634
 20
-393.3654174804687
 30
0.0
 10
192.7098388671884
 20
-383.1444702148437
 30
0.0
 10
192.7098388671884
 20
-370.5362548828134
 30
0.0
 10
192.7098388671884
 20
-357.9280395507812
 30
0.0
 10
183.3804931640634
 20
-347.70703125
 30
0.0
 10
171.8720703125
 20
-347.70703125
 30
0.0
  0
LINE
  5
122
330
70
100
AcDbEntity
  8
图层 1
 62
   250
420
  2299925
370
    35
100
AcDbLine
 10
156.8271604938254
 20
-337.4126108130031
 30
0.0
 11
160.6783623618594
 21
-350.6478217070371
 31
0.0
  0
LINE
  5
123
330
70
100
AcDbEntity
  8
图层 1
 62
   250
420
  2299925
370
    35
100
AcDbLine
 10
162.6902681732999
 20
-336.0360281344583
 30
0.0
 11
165.2436632039689
 21
-346.4307966699926
 31
0.0
  0
LINE
  5
124
330
70
100
AcDbEntity
  8
图层 1
 62
   250
420
  2299925
370
    35
100
AcDbLine
 10
192.7098494423544
 20
-366.4397823181862
 30
0.0
 11
214.1111111111104
 21
-358.2222222222254
 31
0.0
  0
LINE
  5
125
330
70
100
AcDbEntity
  8
图层 1
 62
   250
420
  2299925
370
    35
100
AcDbLine
 10
192.7098494423544
 20
-370.5362575766503
 30
0.0
 11
214.1111111111104
 21
-362.3310022702062
 31
0.0
  0
SPLINE
  5
126
330
70
100
AcDbEntity
  8
图层 1
 62
   250
420
  2299925
370
    70
100
AcDbSpline
210
0.0
220
0.0
230
1.0
 70
     9
 71
     3
 72
    11
 73
     7
 74
     0
 42
0.0000000001
 43
0.0000000001
 40
0.0
 40
0.0
 40
0.0
 40
0.0
 40
1.0
 40
1.0
 40
1.0
 40
2.0
 40
2.0
 40
2.0
 40
2.0
 10
134.8518676757812
 20
-381.74072265625
 30
0.0
 10
128.4066772460937
 20
-381.74072265625
 30
0.0
 10
128.4173583984384
 20
-371.74072265625
 30
0.0
 10
134.8518676757812
 20
-371.74072265625
 30
0.0
 10
141.2970581054687
 20
-371.74072265625
 30
0.0
 10
141.286376953125
 20
-381.74072265625
 30
0.0
 10
134.8518676757812
 20
-381.74072265625
 30
0.0
  0
SPLINE
  5
127
330
70
100
AcDbEntity
  8
图层 1
 62
   250
420
  2299925
370
    70
100
AcDbSpline
210
0.0
220
0.0
230
1.0
 70
     9
 71
     3
 72
    11
 73
     7
 74
     0
 42
0.0000000001
 43
0.0000000001
 40
0.0
 40
0.0
 40
0.0
 40
0.0
 40
1.0
 40
1.0
 40
1.0
 40
2.0
 40
2.0
 40
2.0
 40
2.0
 10
133.370361328125
 20
-394.3333129882812
 30
0.0
 10
126.9251708984384
 20
-394.3333129882812
 30
0.0
 10
126.9358520507812
 20
-384.3333129882812
 30
0.0
 10
133.370361328125
 20
-384.3333129882812
 30
0.0
 10
139.8155517578134
 20
-384.3333129882812
 30
0.0
 10
139.8048706054687
 20
-394.3333129882812
 30
0.0
 10
133.370361328125
 20
-394.3333129882812
 30
0.0
  0
SPLINE
  5
128
330
70
100
AcDbEntity
  8
图层 1
 62
   250
420
  2299925
370
    70
100
AcDbSpline
210
0.0
220
0.0
230
1.0
 70
     9
 71
     3
 72
    11
 73
     7
 74
     0
 42
0.0000000001
 43
0.0000000001
 40
0.0
 40
0.0
 40
0.0
 40
0.0
 40
1.0
 40
1.0
 40
1.0
 40
2.0
 40
2.0
 40
2.0
 40
2.0
 10
130.4074096679687
 20
-357.6666259765634
 30
0.0
 10
136.8526000976562
 20
-357.6666259765634
 30
0.0
 10
136.8419189453134
 20
-367.6666259765634
 30
0.0
 10
130.4074096679687
 20
-367.6666259765634
 30
0.0
 10
123.9622192382812
 20
-367.6666259765634
 30
0.0
 10
123.972900390625
 20
-357.6666259765634
 30
0.0
 10
130.4074096679687
 20
-357.6666259765634
 30
0.0
  0
SPLINE
  5
129
330
70
100
AcDbEntity
  8
图层 1
 62
   250
420
  2299925
370
    70
100
AcDbSpline
210
0.0
220
0.0
230
1.0
 70
     9
 71
     3
 72
    23
 73
    19
 74
     0
 42
0.0000000001
 43
0.0000000001
 40
0.0
 40
0.0
 40
0.0
 40
0.0
 40
1.0
 40
1.0
 40
1.0
 40
2.0
 40
2.0
 40
2.0
 40
3.0
 40
3.0
 40
3.0
 40
4.0
 40
4.0
 40
4.0
 40
5.0
 40
5.0
 40
5.0
 40
6.0
 40
6.0
 40
6.0
 40
6.0
 10
123.5070190429687
 20
-390.473388671875
 30
0.0
 10
125.0675048828134
 20
-393.4334106445313
 30
0.0
 10
123.6631469726562
 20
-398.0370483398437
 30
0.0
 10
119.2963256835937
 20
-398.0370483398437
 30
0.0
 10
113.3035888671884
 20
-398.0370483398437
 30
0.0
 10
112.8956298828134
 20
-389.3963623046884
 30
0.0
 10
118.0397338867187
 20
-388.1825561523438
 30
0.0
 10
116.818115234375
 20
-385.8460083007813
 30
0.0
 10
117.441650390625
 20
-382.493408203125
 30
0.0
 10
119.905029296875
 20
-381.1859130859384
 30
0.0
 10
115.9517822265634
 20
-379.0925903320312
 30
0.0
 10
116.7401733398437
 20
-371.74072265625
 30
0.0
 10
122.25927734375
 20
-371.74072265625
 30
0.0
 10
127.7862548828134
 20
-371.74072265625
 30
0.0
 10
128.5611572265634
 20
-379.089111328125
 30
0.0
 10
124.613525390625
 20
-381.1844482421884
 30
0.0
 10
128.2433471679687
 20
-383.1065063476562
 30
0.0
 10
127.8638305664062
 20
-389.4463500976562
 30
0.0
 10
123.5070190429687
 20
-390.473388671875
 30
0.0
  0
SPLINE
  5
12A
330
70
100
AcDbEntity
  8
图层 1
 62
   250
420
  2299925
370
    70
100
AcDbSpline
210
0.0
220
0.0
230
1.0
 70
     9
 71
     3
 72
    11
 73
     7
 74
     0
 42
0.0000000001
 43
0.0000000001
 40
0.0
 40
0.0
 40
0.0
 40
0.0
 40
1.0
 40
1.0
 40
1.0
 40
2.0
 40
2.0
 40
2.0
 40
2.0
 10
117.0740966796884
 20
-361.370361328125
 30
0.0
 10
123.5192260742187
 20
-361.370361328125
 30
0.0
 10
123.5086059570312
 20
-371.370361328125
 30
0.0
 10
117.0740966796884
 20
-371.370361328125
 30
0.0
 10
110.62890625
 20
-371.370361328125
 30
0.0
 10
110.6395263671884
 20
-361.370361328125
 30
0.0
 10
117.0740966796884
 20
-361.370361328125
 30
0.0
  0
SPLINE
  5
12B
330
70
100
AcDbEntity
  8
图层 1
 62
   250
420
  2299925
370
    70
100
AcDbSpline
210
0.0
220
0.0
230
1.0
 70
     9
 71
     3
 72
    11
 73
     7
 74
     0
 42
0.0000000001
 43
0.0000000001
 40
0.0
 40
0.0
 40
0.0
 40
0.0
 40
1.0
 40
1.0
 40
1.0
 40
2.0
 40
2.0
 40
2.0
 40
2.0
 10
114.111083984375
 20
-350.2592163085938
 30
0.0
 10
120.5562744140634
 20
-350.2592163085938
 30
0.0
 10
120.545654296875
 20
-360.2592163085938
 30
0.0
 10
114.111083984375
 20
-360.2592163085938
 30
0.0
 10
107.6659545898437
 20
-360.2592163085938
 30
0.0
 10
107.6765747070312
 20
-350.2592163085938
 30
0.0
 10
114.111083984375
 20
-350.2592163085938
 30
0.0
  0
SPLINE
  5
12C
330
70
100
AcDbEntity
  8
图层 1
 62
   250
420
  2299925
370
    70
100
AcDbSpline
210
0.0
220
0.0
230
1.0
 70
     9
 71
     3
 72
    11
 73
     7
 74
     0
 42
0.0000000001
 43
0.0000000001
 40
0.0
 40
0.0
 40
0.0
 40
0.0
 40
1.0
 40
1.0
 40
1.0
 40
2.0
 40
2.0
 40
2.0
 40
2.0
 10
124.4815063476562
 20
-346.5555419921884
 30
0.0
 10
130.9266357421884
 20
-346.5555419921884
 30
0.0
 10
130.916015625
 20
-356.5555419921884
 30
0.0
 10
124.4815063476562
 20
-356.5555419921884
 30
0.0
 10
118.0363159179687
 20
-356.5555419921884
 30
0.0
 10
118.0469360351562
 20
-346.5555419921884
 30
0.0
 10
124.4815063476562
 20
-346.5555419921884
 30
0.0
  0
SPLINE
  5
12D
330
70
100
AcDbEntity
  8
图层 1
 62
   250
420
  2299925
370
    70
100
AcDbSpline
210
0.0
220
0.0
230
1.0
 70
     9
 71
     3
 72
    56
 73
    52
 74
     0
 42
0.0000000001
 43
0.0000000001
 40
0.0
 40
0.0
 40
0.0
 40
0.0
 40
1.0
 40
1.0
 40
1.0
 40
2.0
 40
2.0
 40
2.0
 40
3.0
 40
3.0
 40
3.0
 40
4.0
 40
4.0
 40
4.0
 40
5.0
 40
5.0
 40
5.0
 40
6.0
 40
6.0
 40
6.0
 40
7.0
 40
7.0
 40
7.0
 40
8.0
 40
8.0
 40
8.0
 40
9.0
 40
9.0
 40
9.0
 40
10.0
 40
10.0
 40
10.0
 40
11.0
 40
11.0
 40
11.0
 40
12.0
 40
12.0
 40
12.0
 40
13.0
 40
13.0
 40
13.0
 40
14.0
 40
14.0
 40
14.0
 40
15.0
 40
15.0
 40
15.0
 40
16.0
 40
16.0
 40
16.0
 40
17.0
 40
17.0
 40
17.0
 40
17.0
 10
175.9359130859384
 20
-367.6497802734384
 30
0.0
 10
175.8220825195312
 20
-367.6563720703134
 30
0.0
 10
175.7107543945312
 20
-367.6666259765634
 30
0.0
 10
175.5925903320312
 20
-367.6666259765634
 30
0.0
 10
169.4957275390634
 20
-367.6666259765634
 30
0.0
 10
169.1795043945312
 20
-358.7235107421884
 30
0.0
 10
174.6094360351562
 20
-357.7562866210937
 30
0.0
 10
170.2445068359384
 20
-341.6824340820312
 30
0.0
 10
155.5580444335937
 20
-329.857421875
 30
0.0
 10
138.1021728515634
 20
-329.857421875
 30
0.0
 10
129.4403076171884
 20
-329.857421875
 30
0.0
 10
121.4691162109384
 20
-332.7816162109384
 30
0.0
 10
115.0916748046884
 20
-337.6784057617188
 30
0.0
 10
121.2911987304687
 20
-337.927978515625
 30
0.0
 10
121.2039794921884
 20
-347.6666259765634
 30
0.0
 10
114.8518676757812
 20
-347.6666259765634
 30
0.0
 10
111.4911499023437
 20
-347.6666259765634
 30
0.0
 10
109.8898315429687
 20
-344.947998046875
 30
0.0
 10
110.0350952148437
 20
-342.3456420898438
 30
0.0
 10
108.69970703125
 20
-343.8234252929687
 30
0.0
 10
107.4667358398437
 20
-345.3956909179688
 30
0.0
 10
106.37548828125
 20
-347.0712280273438
 30
0.0
 10
102.5121459960937
 20
-353.0030517578134
 30
0.0
 10
100.267333984375
 20
-360.0855102539063
 30
0.0
 10
100.267333984375
 20
-367.6922607421884
 30
0.0
 10
100.267333984375
 20
-388.587890625
 30
0.0
 10
117.20654296875
 20
-405.5270996093749
 30
0.0
 10
138.1021728515634
 20
-405.5270996093749
 30
0.0
 10
151.3887329101562
 20
-405.5270996093749
 30
0.0
 10
163.0693969726562
 20
-398.6749267578134
 30
0.0
 10
169.8173828125
 20
-388.314453125
 30
0.0
 10
166.393798828125
 20
-385.9163208007812
 30
0.0
 10
167.3343505859384
 20
-379.1481323242188
 30
0.0
 10
172.629638671875
 20
-379.1481323242188
 30
0.0
 10
173.1629028320312
 20
-379.1481323242188
 30
0.0
 10
173.6476440429687
 20
-379.22216796875
 30
0.0
 10
174.092529296875
 20
-379.3477783203134
 30
0.0
 10
174.1699829101562
 20
-379.1084594726563
 30
0.0
 10
174.252197265625
 20
-378.8712158203134
 30
0.0
 10
174.3250122070312
 20
-378.6298217773437
 30
0.0
 10
169.1846923828134
 20
-377.4077758789062
 30
0.0
 10
169.6134033203134
 20
-368.7777709960938
 30
0.0
 10
175.5925903320312
 20
-368.7777709960938
 30
0.0
 10
175.7015380859384
 20
-368.7777709960938
 30
0.0
 10
175.803955078125
 20
-368.7876586914062
 30
0.0
 10
175.9091796875
 20
-368.7932739257813
 30
0.0
 10
175.919677734375
 20
-368.4265747070313
 30
0.0
 10
175.93701171875
 20
-368.0615234375
 30
0.0
 10
175.93701171875
 20
-367.6922607421884
 30
0.0
 10
175.93701171875
 20
-367.6780395507813
 30
0.0
 10
175.9359130859384
 20
-367.6640014648437
 30
0.0
 10
175.9359130859384
 20
-367.6497802734384
 30
0.0
  0
SPLINE
  5
12E
330
70
100
AcDbEntity
  8
图层 1
 62
   250
420
  2299925
370
    70
100
AcDbSpline
210
0.0
220
0.0
230
1.0
 70
     8
 71
     3
 72
     8
 73
     4
 74
     0
 42
0.0000000001
 43
0.0000000001
 40
0.0
 40
0.0
 40
0.0
 40
0.0
 40
1.0
 40
1.0
 40
1.0
 40
1.0
 10
106.3754947176567
 20
-347.071221515479
 30
0.0
 10
107.2646621124322
 20
-347.8752623815481
 30
0.0
 10
108.1134370211048
 20
-348.7240183578679
 30
0.0
 10
108.9226571766776
 20
-349.6083741155562
 30
0.0
  0
SPLINE
  5
12F
330
70
100
AcDbEntity
  8
图层 1
 62
   250
420
  2299925
370
    35
100
AcDbSpline
210
0.0
220
0.0
230
1.0
 70
     8
 71
     3
 72
     8
 73
     4
 74
     0
 42
0.0000000001
 43
0.0000000001
 40
0.0
 40
0.0
 40
0.0
 40
0.0
 40
1.0
 40
1.0
 40
1.0
 40
1.0
 10
344.0343817333742
 20
-310.8685970489596
 30
0.0
 10
344.0343817333742
 20
-310.8685970489596
 30
0.0
 10
359.4807739257831
 20
-325.0154079950025
 30
0.0
 10
351.2403869628906
 20
-366.4336299234283
 30
0.0
  0
SPLINE
  5
130
330
70
100
AcDbEntity
  8
图层 1
 62
   250
420
  2299925
370
    35
100
AcDbSpline
210
0.0
220
0.0
230
1.0
 70
     8
 71
     3
 72
     8
 73
     4
 74
     0
 42
0.0000000001
 43
0.0000000001
 40
0.0
 40
0.0
 40
0.0
 40
0.0
 40
1.0
 40
1.0
 40
1.0
 40
1.0
 10
337.2611156584662
 20
-309.3846311685684
 30
0.0
 10
337.2611156584662
 20
-309.3846311685684
 30
0.0
 10
357.9992924443031
 20
-336.0082991675999
 30
0.0
 10
351.2403869628906
 20
-361.9633388605798
 30
0.0
  0
SPLINE
  5
131
330
70
100
AcDbEntity
  8
图层 1
 62
   250
420
  2299925
370
    70
100
AcDbSpline
210
0.0
220
0.0
230
1.0
 70
     8
 71
     3
 72
    14
 73
    10
 74
     0
 42
0.0000000001
 43
0.0000000001
 40
0.0
 40
0.0
 40
0.0
 40
0.0
 40
1.0
 40
1.0
 40
1.0
 40
2.0
 40
2.0
 40
2.0
 40
3.0
 40
3.0
 40
3.0
 40
3.0
 10
136.6158663658789
 20
-436.5555419921874
 30
0.0
 10
136.6158663658789
 20
-436.5555419921874
 30
0.0
 10
105.2222222222226
 20
-516.7407407407463
 30
0.0
 10
71.88888888888778
 20
-527.1111111111149
 30
0.0
 10
71.88888888888778
 20
-527.1111111111149
 30
0.0
 10
35.59259259259034
 20
-543.1396244935749
 30
0.0
 10
25.96296296296078
 20
-567.3475900245667
 30
0.0
 10
25.96296296296078
 20
-567.3475900245667
 30
0.0
 10
97.90320492839782
 20
-547.1111111111149
 30
0.0
 10
168.9701209827171
 20
-664.1481481481514
 30
0.0
  0
SPLINE
  5
132
330
70
100
AcDbEntity
  8
图层 1
 62
   250
420
  2299925
370
    35
100
AcDbSpline
210
0.0
220
0.0
230
1.0
 70
     8
 71
     3
 72
     8
 73
     4
 74
     0
 42
0.0000000001
 43
0.0000000001
 40
0.0
 40
0.0
 40
0.0
 40
0.0
 40
1.0
 40
1.0
 40
1.0
 40
1.0
 10
141.1236840379233
 20
-448.5812467863743
 30
0.0
 10
141.1236840379233
 20
-448.5812467863743
 30
0.0
 10
132.3299004629571
 20
-471.8067394618974
 30
0.0
 10
111.971040792142
 20
-501.0000000000036
 30
0.0
  0
ELLIPSE
  5
133
330
70
100
AcDbEntity
  8
图层 1
 62
   250
420
  2299925
370
    35
100
AcDbEllipse
 10
101.7623574490283
 20
-630.6565155769804
 30
0.0
 11
-46.66395416382339
 21
46.6639541638234
 31
0.0
210
0.0
220
0.0
230
1.0
 40
0.2826381510237443
 41
0.0
 42
6.283185307179585
  0
SPLINE
  5
134
330
70
100
AcDbEntity
  8
图层 1
 62
   250
420
  2299925
370
    25
100
AcDbSpline
210
0.0
220
0.0
230
1.0
 70
     8
 71
     3
 72
     8
 73
     4
 74
     0
 42
0.0000000001
 43
0.0000000001
 40
0.0
 40
0.0
 40
0.0
 40
0.0
 40
1.0
 40
1.0
 40
1.0
 40
1.0
 10
505.4668534414995
 20
-272.474185289394
 30
0.0
 10
505.4668534414995
 20
-272.474185289394
 30
0.0
 10
500.4502562743437
 20
-298.4542010271962
 30
0.0
 10
515.058461470504
 20
-310.1900634765634
 30
0.0
  0
SPLINE
  5
135
330
70
100
AcDbEntity
  8
图层 1
 62
   250
420
  2299925
370
    25
100
AcDbSpline
210
0.0
220
0.0
230
1.0
 70
     8
 71
     3
 72
     8
 73
     4
 74
     0
 42
0.0000000001
 43
0.0000000001
 40
0.0
 40
0.0
 40
0.0
 40
0.0
 40
1.0
 40
1.0
 40
1.0
 40
1.0
 10
508.7493750831726
 20
-315.3876953125
 30
0.0
 10
490.7950464626447
 20
-305.8865017361086
 30
0.0
 10
495.8752454124969
 20
-267.278420592018
 30
0.0
 10
495.8752454124969
 20
-267.278420592018
 30
0.0
  0
SPLINE
  5
136
330
70
100
AcDbEntity
  8
图层 1
 62
   250
420
  2299925
370
    25
100
AcDbSpline
210
0.0
220
0.0
230
1.0
 70
     8
 71
     3
 72
     8
 73
     4
 74
     0
 42
0.0000000001
 43
0.0000000001
 40
0.0
 40
0.0
 40
0.0
 40
0.0
 40
1.0
 40
1.0
 40
1.0
 40
1.0
 10
326.0490092208292
 20
-36.05424817846051
 30
0.0
 10
326.0490092208292
 20
-36.05424817846051
 30
0.0
 10
308.9508011988783
 20
-43.43794886825526
 30
0.0
 10
312.6420672661043
 20
-66.01527073042507
 30
0.0
  0
LWPOLYLINE
  5
137
330
70
100
AcDbEntity
  8
图层 1
 62
   250
420
  2299925
370
    70
100
AcDbPolyline
 90
        4
 70
     0
 43
0.0
 10
25.96296296296078
 20
-575.8884642637185
 10
41.51851851851643
 20
-614.5149539084213
 10
119.6515952483769
 20
-705.6296296296314
 10
162.2350307479673
 20
-705.6296296296314
  0
SPLINE
  5
138
330
70
100
AcDbEntity
  8
图层 1
 62
   250
420
  2299925
370
    70
100
AcDbSpline
210
0.0
220
0.0
230
1.0
 70
     8
 71
     3
 72
    11
 73
     7
 74
     0
 42
0.0000000001
 43
0.0000000001
 40
0.0
 40
0.0
 40
0.0
 40
0.0
 40
1.0
 40
1.0
 40
1.0
 40
2.0
 40
2.0
 40
2.0
 40
2.0
 10
476.3333333333321
 20
-508.385597541901
 30
0.0
 10
476.3333333333321
 20
-508.385597541901
 30
0.0
 10
491.5962122797918
 20
-519.8384938409398
 30
0.0
 10
491.5962122797918
 20
-519.8384938409398
 30
0.0
 10
491.5962122797918
 20
-519.8384938409398
 30
0.0
 10
487.6043404806059
 20
-633.7777777777828
 30
0.0
 10
463.8206887588203
 20
-654.5185185185219
 30
0.0
  0
LINE
  5
139
330
70
100
AcDbEntity
  8
图层 1
 62
   250
420
  2299925
370
    70
100
AcDbLine
 10
25.96296296296078
 20
-567.3475900245667
 30
0.0
 11
28.02665917451577
 21
-581.0128932859261
 31
0.0
  0
LWPOLYLINE
  5
13A
330
70
100
AcDbEntity
  8
图层 1
 62
   250
420
  2299925
370
    35
100
AcDbPolyline
 90
        1
 70
     0
 43
0.0
 10
225.9629629629608
 20
-481.9259259259288
  0
LWPOLYLINE
  5
13B
330
70
100
AcDbEntity
  8
图层 1
 62
   250
420
  2299925
370
    35
100
AcDbPolyline
 90
        1
 70
     0
 43
0.0
 10
228.9259259259234
 20
-489.3333333333357
  0
LWPOLYLINE
  5
13C
330
70
100
AcDbEntity
  8
图层 1
 62
   250
420
  2299925
370
    35
100
AcDbPolyline
 90
        1
 70
     0
 43
0.0
 10
228.1851851851834
 20
-484.8888888888905
  0
SPLINE
  5
13D
330
70
100
AcDbEntity
  8
图层 1
 62
   250
420
  2299925
370
    35
100
AcDbSpline
210
0.0
220
0.0
230
1.0
 70
     8
 71
     3
 72
    20
 73
    16
 74
     0
 42
0.0000000001
 43
0.0000000001
 40
0.0
 40
0.0
 40
0.0
 40
0.0
 40
1.0
 40
1.0
 40
1.0
 40
2.0
 40
2.0
 40
2.0
 40
3.0
 40
3.0
 40
3.0
 40
4.0
 40
4.0
 40
4.0
 40
5.0
 40
5.0
 40
5.0
 40
5.0
 10
228.9470845298956
 20
-490.7907394970497
 30
0.0
 10
231.0951397434128
 20
-493.377702200918
 30
0.0
 10
231.2201135214509
 20
-497.0243150243295
 30
0.0
 10
231.4420122366091
 20
-500.3795017839202
 30
0.0
 10
231.8647649711738
 20
-506.7717087393375
 30
0.0
 10
233.0075980889051
 20
-513.1160219411176
 30
0.0
 10
234.8419603325619
 20
-519.2539485599081
 30
0.0
 10
235.3590161517313
 20
-520.9840647898272
 30
0.0
 10
235.9492064812521
 20
-522.7335980567841
 30
0.0
 10
237.0430082753728
 20
-524.1703466321796
 30
0.0
 10
238.4157224745468
 20
-525.9734561192181
 30
0.0
 10
240.4603199678468
 20
-527.1298827130613
 30
0.0
 10
242.0771064757273
 20
-528.7178212088838
 30
0.0
 10
245.7751086412554
 20
-532.3498406091767
 30
0.0
 10
247.6117903399854
 20
-538.4585988849011
 30
0.0
 10
252.6483897131602
 20
-539.6831195441063
 30
0.0
  0
SPLINE
  5
13E
330
70
100
AcDbEntity
  8
图层 1
 62
   250
420
  2299925
370
    35
100
AcDbSpline
210
0.0
220
0.0
230
1.0
 70
     8
 71
     3
 72
    20
 73
    16
 74
     0
 42
0.0000000001
 43
0.0000000001
 40
0.0
 40
0.0
 40
0.0
 40
0.0
 40
1.0
 40
1.0
 40
1.0
 40
2.0
 40
2.0
 40
2.0
 40
3.0
 40
3.0
 40
3.0
 40
4.0
 40
4.0
 40
4.0
 40
5.0
 40
5.0
 40
5.0
 40
5.0
 10
247.4916153445984
 20
-530.0369925144586
 30
0.0
 10
249.4830068930396
 20
-532.658092349653
 30
0.0
 10
253.244410975004
 20
-533.3866444505129
 30
0.0
 10
256.4580337668112
 20
-532.6735994328283
 30
0.0
 10
259.6716565586175
 20
-531.9605544151454
 30
0.0
 10
262.4805495513483
 20
-530.0746396749764
 30
0.0
 10
265.2150448631655
 20
-528.242062245532
 30
0.0
 10
276.9963435795016
 20
-520.3465850237062
 30
0.0
 10
289.036076946365
 20
-512.7124410255528
 30
0.0
 10
302.0315797748499
 20
-507.0331417160068
 30
0.0
 10
310.1310885646471
 20
-503.4934828196819
 30
0.0
 10
319.118943192223
 20
-500.6970748086842
 30
0.0
 10
327.7205393314089
 20
-502.732695369823
 30
0.0
 10
336.3221354705947
 20
-504.7683159309618
 30
0.0
 10
343.9065231809909
 20
-513.2572158031762
 30
0.0
 10
342.0447193256878
 20
-521.8981008050122
 30
0.0
  0
SPLINE
  5
13F
330
70
100
AcDbEntity
  8
图层 1
 62
   250
420
  2299925
370
    35
100
AcDbSpline
210
0.0
220
0.0
230
1.0
 70
     8
 71
     3
 72
    20
 73
    16
 74
     0
 42
0.0000000001
 43
0.0000000001
 40
0.0
 40
0.0
 40
0.0
 40
0.0
 40
1.0
 40
1.0
 40
1.0
 40
2.0
 40
2.0
 40
2.0
 40
3.0
 40
3.0
 40
3.0
 40
4.0
 40
4.0
 40
4.0
 40
5.0
 40
5.0
 40
5.0
 40
5.0
 10
254.1906420707828
 20
-536.6969529984253
 30
0.0
 10
263.5116054854634
 20
-531.9759809102706
 30
0.0
 10
272.832568900144
 20
-527.2550088221178
 30
0.0
 10
282.1535323148246
 20
-522.5340367339631
 30
0.0
 10
287.6801975098524
 20
-519.7348400548126
 30
0.0
 10
293.2634812381193
 20
-516.8985291025401
 30
0.0
 10
297.9908252939676
 20
-512.8945626232835
 30
0.0
 10
300.2510870510286
 20
-510.9801643782811
 30
0.0
 10
302.3750014952384
 20
-508.7636265245419
 30
0.0
 10
305.1390796303967
 20
-507.6989317541865
 30
0.0
 10
311.0997295452508
 20
-505.402948050756
 30
0.0
 10
317.5335309724342
 20
-509.1473981857489
 30
0.0
 10
322.8195793779032
 20
-512.7332845626242
 30
0.0
 10
326.7119772460337
 20
-515.3737616103935
 30
0.0
 10
330.6043737421605
 20
-518.0142385928356
 30
0.0
 10
334.4967702382855
 20
-520.6547155752778
 30
0.0
  0
SPLINE
  5
140
330
70
100
AcDbEntity
  8
图层 1
 62
   250
420
  2299925
370
    35
100
AcDbSpline
210
0.0
220
0.0
230
1.0
 70
    24
 71
     3
 72
     8
 73
     4
 74
     0
 42
0.0000000001
 43
0.0000000001
 40
0.0
 40
0.0
 40
0.0
 40
0.0
 40
1.0
 40
1.0
 40
1.0
 40
1.0
 10
255.1393832298081
 20
-539.4326297300758
 30
0.0
 10
263.4448450345044
 20
-534.3480015542627
 30
0.0
 10
271.7503068392016
 20
-529.2633733784514
 30
0.0
 10
280.0557686438978
 20
-524.1787452026382
 30
0.0
  0
SPLINE
  5
141
330
70
100
AcDbEntity
  8
图层 1
 62
   250
420
  2299925
370
    35
100
AcDbSpline
210
0.0
220
0.0
230
1.0
 70
     8
 71
     3
 72
    20
 73
    16
 74
     0
 42
0.0000000001
 43
0.0000000001
 40
0.0
 40
0.0
 40
0.0
 40
0.0
 40
1.0
 40
1.0
 40
1.0
 40
2.0
 40
2.0
 40
2.0
 40
3.0
 40
3.0
 40
3.0
 40
4.0
 40
4.0
 40
4.0
 40
5.0
 40
5.0
 40
5.0
 40
5.0
 10
315.6768334543667
 20
-505.9138340274002
 30
0.0
 10
321.2389668923352
 20
-504.3775652034291
 30
0.0
 10
327.5895644750363
 20
-506.1826015561
 30
0.0
 10
331.5121439488248
 20
-510.4147192946675
 30
0.0
 10
332.3987523135729
 20
-511.3712927377455
 30
0.0
 10
333.1983457861006
 20
-512.4630095497596
 30
0.0
 10
334.3473127222678
 20
-513.0802466987224
 30
0.0
 10
335.496279658435
 20
-513.6974838476835
 30
0.0
 10
337.1541516600555
 20
-513.6415493737277
 30
0.0
 10
337.8674480546997
 20
-512.5496176121924
 30
0.0
 10
338.5552130021315
 20
-511.4967722221408
 30
0.0
 10
338.0031426258811
 20
-509.9975797072747
 30
0.0
 10
337.0080872792423
 20
-509.228575304518
 30
0.0
 10
336.0130319326036
 20
-508.4595709017612
 30
0.0
 10
334.7147139655899
 20
-508.2343264457086
 30
0.0
 10
333.4733560376244
 20
-508.0329973394855
 30
0.0
  0
SPLINE
  5
142
330
70
100
AcDbEntity
  8
图层 1
 62
   250
420
  2299925
370
    35
100
AcDbSpline
210
0.0
220
0.0
230
1.0
 70
     8
 71
     3
 72
    41
 73
    37
 74
     0
 42
0.0000000001
 43
0.0000000001
 40
0.0
 40
0.0
 40
0.0
 40
0.0
 40
1.0
 40
1.0
 40
1.0
 40
2.0
 40
2.0
 40
2.0
 40
3.0
 40
3.0
 40
3.0
 40
4.0
 40
4.0
 40
4.0
 40
5.0
 40
5.0
 40
5.0
 40
6.0
 40
6.0
 40
6.0
 40
7.0
 40
7.0
 40
7.0
 40
8.0
 40
8.0
 40
8.0
 40
9.0
 40
9.0
 40
9.0
 40
10.0
 40
10.0
 40
10.0
 40
11.0
 40
11.0
 40
11.0
 40
12.0
 40
12.0
 40
12.0
 40
12.0
 10
323.1567997810835
 20
-506.1114462768054
 30
0.0
 10
328.2837417329302
 20
-509.2170425227668
 30
0.0
 10
333.4106836847768
 20
-512.3226387687264
 30
0.0
 10
338.5376256366217
 20
-515.4282350146877
 30
0.0
 10
335.3045996891251
 20
-511.9357092286263
 30
0.0
 10
330.9501565334595
 20
-509.4976842739415
 30
0.0
 10
326.282848360519
 20
-508.5668633661989
 30
0.0
 10
331.33725155303
 20
-510.3476506285897
 30
0.0
 10
336.9147659241862
 20
-512.593544682979
 30
0.0
 10
339.0853201403661
 20
-517.493227254461
 30
0.0
 10
335.1855436878177
 20
-513.3508655750574
 30
0.0
 10
330.3471790471613
 20
-510.0972813291446
 30
0.0
 10
325.0397564843261
 20
-508.0482126535607
 30
0.0
 10
328.3334613881725
 20
-507.2700731877467
 30
0.0
 10
331.2313410591705
 20
-510.1992220752272
 30
0.0
 10
333.3513022714396
 20
-512.8373573106473
 30
0.0
 10
335.2041532731146
 20
-515.1430994288602
 30
0.0
 10
337.0570057630867
 20
-517.4488398531957
 30
0.0
 10
338.9098582530605
 20
-519.7545802775311
 30
0.0
 10
340.1621349279976
 20
-521.3129478320333
 30
0.0
 10
342.2331723367988
 20
-523.026379139912
 30
0.0
 10
343.8928979720695
 20
-521.9119209245454
 30
0.0
 10
344.9327898355404
 20
-521.2136640069948
 30
0.0
 10
345.0908682252684
 20
-519.7883339989203
 30
0.0
 10
345.4014992968569
 20
-518.5748899943628
 30
0.0
 10
347.0458889476213
 20
-512.1512708784612
 30
0.0
 10
354.6512427321031
 20
-509.4389992169799
 30
0.0
 10
361.2438364244572
 20
-508.728644826624
 30
0.0
 10
362.4358640811643
 20
-508.600203451313
 30
0.0
 10
363.6728536953251
 20
-508.5077721795369
 30
0.0
 10
364.8061653804743
 20
-508.8989647691305
 30
0.0
 10
366.2809268669098
 20
-509.4080177753294
 30
0.0
 10
367.3597608936598
 20
-510.6525373168879
 30
0.0
 10
368.365327257472
 20
-511.8453879924673
 30
0.0
 10
371.098692420228
 20
-515.0878362045095
 30
0.0
 10
373.8320576229744
 20
-518.3302843690926
 30
0.0
 10
376.565422825719
 20
-521.5727325336756
 30
0.0
  0
SPLINE
  5
143
330
70
100
AcDbEntity
  8
图层 1
 62
   250
420
  2299925
370
    35
100
AcDbSpline
210
0.0
220
0.0
230
1.0
 70
     8
 71
     3
 72
     8
 73
     4
 74
     0
 42
0.0000000001
 43
0.0000000001
 40
0.0
 40
0.0
 40
0.0
 40
0.0
 40
1.0
 40
1.0
 40
1.0
 40
1.0
 10
347.6916010214936
 20
-519.6783878403985
 30
0.0
 10
347.3252475658428
 20
-516.1017108379237
 30
0.0
 10
349.8885746419873
 20
-512.4526630639702
 30
0.0
 10
353.377495783976
 20
-511.5841801916576
 30
0.0
  0
SPLINE
  5
144
330
70
100
AcDbEntity
  8
图层 1
 62
   250
420
  2299925
370
    35
100
AcDbSpline
210
0.0
220
0.0
230
1.0
 70
     8
 71
     3
 72
     8
 73
     4
 74
     0
 42
0.0000000001
 43
0.0000000001
 40
0.0
 40
0.0
 40
0.0
 40
0.0
 40
1.0
 40
1.0
 40
1.0
 40
1.0
 10
517.0779038841483
 20
-322.0924678002193
 30
0.0
 10
517.0779038841483
 20
-322.0924678002193
 30
0.0
 10
499.8885539874627
 20
-356.8661767882422
 30
0.0
 10
517.740573290026
 20
-374.2108661719003
 30
0.0
  0
SPLINE
  5
145
330
70
100
AcDbEntity
  8
图层 1
 62
   250
420
  2299925
370
    70
100
AcDbSpline
210
0.0
220
0.0
230
1.0
 70
     8
 71
     3
 72
    11
 73
     7
 74
     0
 42
0.0000000001
 43
0.0000000001
 40
0.0
 40
0.0
 40
0.0
 40
0.0
 40
1.0
 40
1.0
 40
1.0
 40
2.0
 40
2.0
 40
2.0
 40
2.0
 10
100.2673129107388
 20
-370.5362575766503
 30
0.0
 10
100.2673129107388
 20
-370.5362575766503
 30
0.0
 10
84.16588495273117
 20
-366.370361328125
 30
0.0
 10
84.16588495273117
 20
-366.370361328125
 30
0.0
 10
84.16588495273117
 20
-366.370361328125
 30
0.0
 10
92.08213046944001
 20
-337.8145652300645
 30
0.0
 10
90.87439856805213
 20
-322.0924678002193
 30
0.0
  0
SPLINE
  5
146
330
70
100
AcDbEntity
  8
图层 1
 62
   250
420
  2299925
370
    70
100
AcDbSpline
210
0.0
220
0.0
230
1.0
 70
     8
 71
     3
 72
    14
 73
    10
 74
     0
 42
0.0000000001
 43
0.0000000001
 40
0.0
 40
0.0
 40
0.0
 40
0.0
 40
1.0
 40
1.0
 40
1.0
 40
2.0
 40
2.0
 40
2.0
 40
3.0
 40
3.0
 40
3.0
 40
3.0
 10
127.0862829209018
 20
-329.857421875
 30
0.0
 10
127.0862829209018
 20
-329.857421875
 30
0.0
 10
94.09899685546406
 20
-310.1901000060188
 30
0.0
 10
94.09899685546406
 20
-310.1901000060188
 30
0.0
 10
97.42024139056411
 20
-289.3456293228355
 30
0.0
 10
92.21659893173455
 20
-277.5012459348654
 30
0.0
 10
92.21659893173455
 20
-277.5012459348654
 30
0.0
 10
92.21659893173455
 20
-277.5012459348654
 30
0.0
 10
123.0790669640564
 20
-291.3321243829787
 30
0.0
 10
123.0790669640564
 20
-291.3321243829787
 30
0.0
  0
LWPOLYLINE
  5
147
330
70
100
AcDbEntity
  8
图层 1
 62
   250
420
  2299925
370
    70
100
AcDbPolyline
 90
        3
 70
     0
 43
0.0
 10
97.46654197283897
 20
-326.5484536989443
 10
92.21659893173455
 20
-356.7407407407436
 10
100.2673129107388
 20
-362.6666259765634
  0
LWPOLYLINE
  5
148
330
70
100
AcDbEntity
  8
图层 1
 62
   250
420
  2299925
370
    70
100
AcDbPolyline
 90
        1
 70
     0
 43
0.0
 10
222.9999999999991
 20
-277.9960832101224
  0
LINE
  5
149
330
70
100
AcDbEntity
  8
图层 1
 62
   250
420
  2299925
370
    25
100
AcDbLine
 10
226.3333333333321
 20
-278.2222222222253
 30
0.0
 11
231.1481481481478
 21
-308.6209038066436
 31
0.0
  0
LINE
  5
14A
330
70
100
AcDbEntity
  8
图层 1
 62
   250
420
  2299925
370
    25
100
AcDbLine
 10
222.9999999999991
 20
-277.9960832101224
 30
0.0
 11
227.8526710409806
 21
-310.1901000060188
 31
0.0
  0
LINE
  5
14B
330
70
100
AcDbEntity
  8
图层 1
 62
   250
420
  2299925
370
    25
100
AcDbLine
 10
212.3244269947099
 20
-307.0353687731012
 30
0.0
 11
220.1613672666763
 21
-313.0636277421372
 31
0.0
  0
LINE
  5
14C
330
70
100
AcDbEntity
  8
图层 1
 62
   250
420
  2299925
370
    25
100
AcDbLine
 10
209.1436949788358
 20
-311.0649529810862
 30
0.0
 11
216.2428971306927
 21
-315.3876953125
 31
0.0
  0
SPLINE
  5
14D
330
70
100
AcDbEntity
  8
图层 1
 62
   250
420
  2299925
370
    25
100
AcDbSpline
210
0.0
220
0.0
230
1.0
 70
     8
 71
     3
 72
    14
 73
    10
 74
     0
 42
0.0000000001
 43
0.0000000001
 40
0.0
 40
0.0
 40
0.0
 40
0.0
 40
1.0
 40
1.0
 40
1.0
 40
2.0
 40
2.0
 40
2.0
 40
3.0
 40
3.0
 40
3.0
 40
3.0
 10
315.6768334543667
 20
-116.5572437223636
 30
0.0
 10
315.6768334543667
 20
-116.5572437223636
 30
0.0
 10
306.5254773723591
 20
-119.3984171030597
 30
0.0
 10
304.0960720195126
 20
-135.6621715144929
 30
0.0
 10
304.0960720195126
 20
-135.6621715144929
 30
0.0
 10
297.6379999999999
 20
-143.8175659179687
 30
0.0
 10
297.6379999999999
 20
-143.8175659179687
 30
0.0
 10
297.6379999999999
 20
-143.8175659179687
 30
0.0
 10
287.3467959039208
 20
-129.3259788410741
 30
0.0
 10
275.2474720260343
 20
-128.7741005316484
 30
0.0
  0
SPLINE
  5
14E
330
70
100
AcDbEntity
  8
图层 1
 62
   250
420
  2299925
370
    35
100
AcDbSpline
210
0.0
220
0.0
230
1.0
 70
     8
 71
     3
 72
     8
 73
     4
 74
     0
 42
0.0000000001
 43
0.0000000001
 40
0.0
 40
0.0
 40
0.0
 40
0.0
 40
1.0
 40
1.0
 40
1.0
 40
1.0
 10
76.54567607651188
 20
-522.2686896193009
 30
0.0
 10
76.54567607651188
 20
-522.2686896193009
 30
0.0
 10
125.7658865943649
 20
-503.9700882523156
 30
0.0
 10
141.1236840379233
 20
-477.57763671875
 30
0.0
  0
SPLINE
  5
14F
330
70
100
AcDbEntity
  8
图层 1
 62
   250
420
  2299925
370
    35
100
AcDbSpline
210
0.0
220
0.0
230
1.0
 70
     8
 71
     3
 72
    14
 73
    10
 74
     0
 42
0.0000000001
 43
0.0000000001
 40
0.0
 40
0.0
 40
0.0
 40
0.0
 40
1.0
 40
1.0
 40
1.0
 40
2.0
 40
2.0
 40
2.0
 40
3.0
 40
3.0
 40
3.0
 40
3.0
 10
146.5429077148437
 20
-458.5592005989001
 30
0.0
 10
146.5429077148437
 20
-458.5592005989001
 30
0.0
 10
158.6287645961911
 20
-459.7722381602579
 30
0.0
 10
138.0617065429687
 20
-476.2894186996527
 30
0.0
 10
138.0617065429687
 20
-476.2894186996527
 30
0.0
 10
131.2126799583784
 20
-488.2274064033226
 30
0.0
 10
131.2126799583784
 20
-488.2274064033226
 30
0.0
 10
131.2126799583784
 20
-488.2274064033226
 30
0.0
 10
157.5158917462386
 20
-461.9259259259324
 30
0.0
 10
183.2949829101562
 20
-501.0000000000036
 30
0.0
  0
LWPOLYLINE
  5
150
330
70
100
AcDbEntity
  8
图层 1
 62
   250
420
  2299925
370
    35
100
AcDbPolyline
 90
        4
 70
     0
 43
0.0
 10
389.8892850522953
 20
-432.3671086480244
 10
389.8892850522953
 20
-434.5577373508167
 10
364.3280227260075
 20
-451.7619636125309
 10
357.8760070178523
 20
-453.4074074074105
  0
LWPOLYLINE
  5
151
330
70
100
AcDbEntity
  8
图层 1
 62
   250
420
  2299925
370
    35
100
AcDbPolyline
 90
        3
 70
     0
 43
0.0
 10
402.1363959748996
 20
-417.4814814814854
 10
398.9479733452827
 20
-420.945006204688
 10
393.1580358881983
 20
-427.234508525411
  0
LWPOLYLINE
  5
152
330
70
100
AcDbEntity
  8
图层 1
 62
   250
420
  2299925
370
    35
100
AcDbPolyline
 90
        7
 70
     0
 43
0.0
 10
398.8829567723133
 20
-422.111083984375
 10
396.1717574368231
 20
-436.5555419921874
 10
393.1580366545859
 20
-438.5308187187984
 10
379.3644901104235
 20
-447.5714941611658
 10
362.4918361531818
 20
-453.4074074074105
 10
360.0370370370365
 20
-455.7050921676346
 10
357.8760070178523
 20
-463.1002682308608
  0
LWPOLYLINE
  5
153
330
70
100
AcDbEntity
  8
图层 1
 62
   250
420
  2299925
370
    35
100
AcDbPolyline
 90
        3
 70
     0
 43
0.0
 10
379.3644901104235
 20
-448.5812467863743
 10
379.3644901104235
 20
-449.740453629558
 10
394.3731397111442
 20
-437.7344062567681
  0
LWPOLYLINE
  5
154
330
70
100
AcDbEntity
  8
图层 1
 62
   250
420
  2299925
370
    35
100
AcDbPolyline
 90
       11
 70
     0
 43
0.0
 10
360.0370370370365
 20
-455.7050921676346
 10
379.3644901104235
 20
-449.740453629558
 10
379.3644901104235
 20
-464.7399291992187
 10
383.7407407407391
 20
-452.4516529650481
 10
385.477595928227
 20
-450.9462664639049
 10
386.8688149107839
 20
-449.740453629558
 10
386.8688149107839
 20
-446.4870144269716
 10
391.472345255308
 20
-446.4870144269716
 10
394.4009574948413
 20
-443.737429943163
 10
394.3731397111442
 20
-440.4444444444489
 10
396.3525040591903
 20
-438.9019165039062
  0
LINE
  5
155
330
70
100
AcDbEntity
  8
图层 1
 62
   250
420
  2299925
370
    25
100
AcDbLine
 10
384.2494557349291
 20
-476.2894186996527
 30
0.0
 11
385.477595928227
 21
-450.9462664639049
 31
0.0
  0
LWPOLYLINE
  5
156
330
70
100
AcDbEntity
  8
图层 1
 62
   250
420
  2299925
370
    25
100
AcDbPolyline
 90
        8
 70
     0
 43
0.0
 10
354.0634083211207
 20
-461.6697307057129
 10
352.5946573314923
 20
-460.9467442162476
 10
349.8611113034022
 20
-465.3214111697125
 10
349.8611113034022
 20
-468.0692152647424
 10
342.3285858223571
 20
-481.9259259259288
 10
352.5946573314923
 20
-469.374060266764
 10
353.6334579082795
 20
-464.7399291992187
 10
354.0634083211207
 20
-467.2962962962992
  0
LWPOLYLINE
  5
157
330
70
100
AcDbEntity
  8
图层 1
 62
   250
420
  2299925
370
    25
100
AcDbPolyline
 90
        9
 70
     0
 43
0.0
 10
355.3835101819168
 20
-467.8518518518558
 10
354.0634083211207
 20
-474.7906233931899
 10
352.5946573314923
 20
-476.2894186996527
 10
353.6334579082795
 20
-480.8693089538701
 10
348.8474395595949
 20
-485.7429328863799
 10
346.4664362861822
 20
-490.7907394970497
 10
352.5946573314923
 20
-484.8888888888905
 10
355.3835101819168
 20
-484.6807714204914
 10
356.782504492985
 20
-479.3212956744537
  0
SPLINE
  5
158
330
70
100
AcDbEntity
  8
图层 1
 62
   250
420
  2299925
370
    25
100
AcDbSpline
210
0.0
220
0.0
230
1.0
 70
     8
 71
     3
 72
     8
 73
     4
 74
     0
 42
0.0000000001
 43
0.0000000001
 40
0.0
 40
0.0
 40
0.0
 40
0.0
 40
1.0
 40
1.0
 40
1.0
 40
1.0
 10
385.477595928227
 20
-475.0953385643024
 30
0.0
 10
385.477595928227
 20
-475.0953385643024
 30
0.0
 10
388.5076420310142
 20
-474.9169629025509
 30
0.0
 10
388.7247672865997
 20
-478.3247843454428
 30
0.0
  0
SPLINE
  5
159
330
70
100
AcDbEntity
  8
图层 1
 62
   250
420
  2299925
370
    35
100
AcDbSpline
210
0.0
220
0.0
230
1.0
 70
     8
 71
     3
 72
     8
 73
     4
 74
     0
 42
0.0000000001
 43
0.0000000001
 40
0.0
 40
0.0
 40
0.0
 40
0.0
 40
1.0
 40
1.0
 40
1.0
 40
1.0
 10
373.8826460350738
 20
-493.674792682812
 30
0.0
 10
373.8826460350738
 20
-493.674792682812
 30
0.0
 10
375.4869634084098
 20
-489.4121604362353
 30
0.0
 10
379.7525077155988
 20
-497.9245488422239
 30
0.0
  0
LINE
  5
15A
330
70
100
AcDbEntity
  8
图层 1
 62
   250
420
  2299925
370
    35
100
AcDbLine
 10
402.6786358419995
 20
-435.1131161180965
 30
0.0
 11
414.2016147033809
 21
-467.8518518518558
 31
0.0
  0
LINE
  5
15B
330
70
100
AcDbEntity
  8
图层 1
 62
   250
420
  2299925
370
    25
100
AcDbLine
 10
411.1730234210972
 20
-440.4444444444489
 30
0.0
 11
424.8307151588432
 21
-473.777777777781
 31
0.0
  0
SPLINE
  5
15C
330
70
100
AcDbEntity
  8
图层 1
 62
   250
420
  2299925
370
    25
100
AcDbSpline
210
0.0
220
0.0
230
1.0
 70
     8
 71
     3
 72
     8
 73
     4
 74
     0
 42
0.0000000001
 43
0.0000000001
 40
0.0
 40
0.0
 40
0.0
 40
0.0
 40
1.0
 40
1.0
 40
1.0
 40
1.0
 10
262.5214105113164
 20
-369.4523542574943
 30
0.0
 10
262.5214105113164
 20
-369.4523542574943
 30
0.0
 10
252.7396065729127
 20
-375.9014751241793
 30
0.0
 10
252.6483897131602
 20
-378.7777709960938
 30
0.0
  0
SPLINE
  5
15D
330
70
100
AcDbEntity
  8
图层 1
 62
   250
420
  2299925
370
    18
100
AcDbSpline
210
0.0
220
0.0
230
1.0
 70
     8
 71
     3
 72
    32
 73
    28
 74
     0
 42
0.0000000001
 43
0.0000000001
 40
0.0
 40
0.0
 40
0.0
 40
0.0
 40
1.0
 40
1.0
 40
1.0
 40
2.0
 40
2.0
 40
2.0
 40
3.0
 40
3.0
 40
3.0
 40
4.0
 40
4.0
 40
4.0
 40
5.0
 40
5.0
 40
5.0
 40
6.0
 40
6.0
 40
6.0
 40
7.0
 40
7.0
 40
7.0
 40
8.0
 40
8.0
 40
8.0
 40
9.0
 40
9.0
 40
9.0
 40
9.0
 10
275.3868312757204
 20
-375.2592592592628
 30
0.0
 10
275.3868312757204
 20
-375.2592592592628
 30
0.0
 10
269.4904892546856
 20
-380.4444580078134
 30
0.0
 10
269.4904892546856
 20
-380.4444580078134
 30
0.0
 10
269.4904892546856
 20
-380.4444580078134
 30
0.0
 10
261.334777151812
 20
-381.185185185188
 30
0.0
 10
261.334777151812
 20
-381.185185185188
 30
0.0
 10
261.334777151812
 20
-381.185185185188
 30
0.0
 10
268.3608042137657
 20
-381.185185185188
 30
0.0
 10
268.3608042137657
 20
-381.185185185188
 30
0.0
 10
268.3608042137657
 20
-381.185185185188
 30
0.0
 10
282.2198356982844
 20
-394.3333129882812
 30
0.0
 10
282.2198356982844
 20
-394.3333129882812
 30
0.0
 10
282.2198356982844
 20
-394.3333129882812
 30
0.0
 10
278.9739389905708
 20
-399.0757509760724
 30
0.0
 10
278.9739389905708
 20
-399.0757509760724
 30
0.0
 10
278.9739389905708
 20
-399.0757509760724
 30
0.0
 10
279.4609053497943
 20
-408.8058244778803
 30
0.0
 10
279.4609053497943
 20
-408.8058244778803
 30
0.0
 10
279.4609053497943
 20
-408.8058244778803
 30
0.0
 10
301.0167114753494
 20
-437.7344062567681
 30
0.0
 10
301.0167114753494
 20
-437.7344062567681
 30
0.0
 10
301.0167114753494
 20
-437.7344062567681
 30
0.0
 10
311.5940323241575
 20
-435.9058990710382
 30
0.0
 10
311.5940323241575
 20
-435.9058990710382
 30
0.0
 10
311.5940323241575
 20
-435.9058990710382
 30
0.0
 10
318.4312071068362
 20
-431.1820328575522
 30
0.0
 10
320.6688279448026
 20
-433.1710291579675
 30
0.0
  0
LINE
  5
15E
330
70
100
AcDbEntity
  8
图层 1
 62
   250
420
  2299925
370
    25
100
AcDbLine
 10
284.4937591451062
 20
-393.3654174804687
 30
0.0
 11
269.4904892546856
 21
-380.4444580078134
 31
0.0
  0
LINE
  5
15F
330
70
100
AcDbEntity
  8
图层 1
 62
   250
420
  2299925
370
    25
100
AcDbLine
 10
284.0664998793618
 20
-394.3333129882812
 30
0.0
 11
280.8554123673366
 21
-398.357385834146
 31
0.0
  0
LWPOLYLINE
  5
160
330
70
100
AcDbEntity
  8
图层 1
 62
   250
420
  2299925
370
    25
100
AcDbPolyline
 90
        5
 70
     0
 43
0.0
 10
286.3333384195957
 20
-402.7588949845285
 10
292.2194058608102
 20
-399.4285180716452
 10
294.3437061545337
 20
-400.2798353909493
 10
307.2444192327675
 20
-410.8148148148184
 10
305.9629629629617
 20
-414.3141156458287
  0
LINE
  5
161
330
70
100
AcDbEntity
  8
图层 1
 62
   250
420
  2299925
370
    25
100
AcDbLine
 10
258.7563999943586
 20
-415.2699721871941
 30
0.0
 11
251.9359527887818
 21
-427.234508525411
 31
0.0
  0
LWPOLYLINE
  5
162
330
70
100
AcDbEntity
  8
图层 1
 62
   250
420
  2299925
370
    25
100
AcDbPolyline
 90
        4
 70
     0
 43
0.0
 10
258.7563999943586
 20
-417.4814814814854
 10
261.334777151812
 20
-426.005049691581
 10
276.9921241998964
 20
-442.6056761076178
 10
300.0165540732924
 20
-445.7555290630625
  0
LWPOLYLINE
  5
163
330
70
100
AcDbEntity
  8
图层 1
 62
   250
420
  2299925
370
    25
100
AcDbPolyline
 90
        3
 70
     0
 43
0.0
 10
255.5274704431804
 20
-420.9342114642058
 10
262.4444444444435
 20
-432.3671086480244
 10
263.5037366202032
 20
-438.9019165039062
  0
SPLINE
  5
164
330
70
100
AcDbEntity
  8
图层 1
 62
   250
420
  2299925
370
    25
100
AcDbSpline
210
0.0
220
0.0
230
1.0
 70
     8
 71
     3
 72
    11
 73
     7
 74
     0
 42
0.0000000001
 43
0.0000000001
 40
0.0
 40
0.0
 40
0.0
 40
0.0
 40
1.0
 40
1.0
 40
1.0
 40
2.0
 40
2.0
 40
2.0
 40
2.0
 10
248.3789587823849
 20
-430.0740740740766
 30
0.0
 10
248.3789587823849
 20
-430.0740740740766
 30
0.0
 10
254.4664055019057
 20
-437.2938204197817
 30
0.0
 10
261.334777151812
 20
-440.4444444444489
 30
0.0
 10
261.334777151812
 20
-440.4444444444489
 30
0.0
 10
276.5365340649268
 20
-447.0136249482475
 30
0.0
 10
276.5365340649268
 20
-447.0136249482475
 30
0.0
  0
LWPOLYLINE
  5
165
330
70
100
AcDbEntity
  8
图层 1
 62
   250
420
  2299925
370
    35
100
AcDbPolyline
 90
       11
 70
     0
 43
0.0
 10
250.3962840389349
 20
-436.5555419921874
 10
249.405500075658
 20
-440.4444444444489
 10
251.9359527887818
 20
-442.6056761076178
 10
252.6483897131602
 20
-439.5806090499027
 10
254.1906420707828
 20
-438.5438495111629
 10
267.597575936853
 20
-447.7522407835331
 10
269.4904892546856
 20
-453.4074074074105
 10
276.5365340649268
 20
-455.8858387900017
 10
276.9921241998964
 20
-458.5592005989001
 10
280.0557686438978
 20
-460.9467442162476
 10
283.7407458270036
 20
-469.374060266764
  0
SPLINE
  5
166
330
70
100
AcDbEntity
  8
图层 1
 62
   250
420
  2299925
370
    35
100
AcDbSpline
210
0.0
220
0.0
230
1.0
 70
     8
 71
     3
 72
    20
 73
    16
 74
     0
 42
0.0000000001
 43
0.0000000001
 40
0.0
 40
0.0
 40
0.0
 40
0.0
 40
1.0
 40
1.0
 40
1.0
 40
2.0
 40
2.0
 40
2.0
 40
3.0
 40
3.0
 40
3.0
 40
4.0
 40
4.0
 40
4.0
 40
5.0
 40
5.0
 40
5.0
 40
5.0
 10
276.5365340649268
 20
-447.7522407835331
 30
0.0
 10
276.5365340649268
 20
-447.7522407835331
 30
0.0
 10
272.5791490072497
 20
-449.0793877405358
 30
0.0
 10
276.5365340649268
 20
-450.9462669751574
 30
0.0
 10
276.5365340649268
 20
-450.9462669751574
 30
0.0
 10
278.3395352214111
 20
-453.4074074074105
 30
0.0
 10
278.3395352214111
 20
-453.4074074074105
 30
0.0
 10
278.3395352214111
 20
-453.4074074074105
 30
0.0
 10
278.3395352214111
 20
-456.7407407407444
 30
0.0
 10
278.3395352214111
 20
-456.7407407407444
 30
0.0
 10
278.3395352214111
 20
-456.7407407407444
 30
0.0
 10
282.4609561233492
 20
-459.6815178596862
 30
0.0
 10
282.4609561233492
 20
-459.6815178596862
 30
0.0
 10
282.4609561233492
 20
-459.6815178596862
 30
0.0
 10
283.1701817196272
 20
-468.0692152647424
 30
0.0
 10
283.1701817196272
 20
-468.0692152647424
 30
0.0
  0
LWPOLYLINE
  5
167
330
70
100
AcDbEntity
  8
图层 1
 62
   250
420
  2299925
370
    35
100
AcDbPolyline
 90
        5
 70
     0
 43
0.0
 10
287.7237840172429
 20
-451.8209228515624
 10
292.7119341563775
 20
-454.0783725663422
 10
296.3333333333321
 20
-458.5592005989001
 10
296.4991949387868
 20
-465.3214111697125
 10
301.822020561789
 20
-477.57763671875
  0
LWPOLYLINE
  5
168
330
70
100
AcDbEntity
  8
图层 1
 62
   250
420
  2299925
370
    35
100
AcDbPolyline
 90
        5
 70
     0
 43
0.0
 10
305.9629629629617
 20
-451.8209228515624
 10
296.4991949387868
 20
-453.4074074074105
 10
296.4991949387868
 20
-456.7407407407444
 10
299.2765845158083
 20
-460.2237577267842
 10
300.0165540732924
 20
-476.2894186996527
  0
SPLINE
  5
169
330
70
100
AcDbEntity
  8
图层 1
 62
   250
420
  2299925
370
    35
100
AcDbSpline
210
0.0
220
0.0
230
1.0
 70
    11
 71
     3
 72
    29
 73
    25
 74
     0
 42
0.0000000001
 43
0.0000000001
 40
0.0
 40
0.0
 40
0.0
 40
0.0
 40
1.0
 40
1.0
 40
1.0
 40
2.0
 40
2.0
 40
2.0
 40
3.0
 40
3.0
 40
3.0
 40
4.0
 40
4.0
 40
4.0
 40
5.0
 40
5.0
 40
5.0
 40
6.0
 40
6.0
 40
6.0
 40
7.0
 40
7.0
 40
7.0
 40
8.0
 40
8.0
 40
8.0
 40
8.0
 10
254.1906420707828
 20
-447.7522407835331
 30
0.0
 10
254.1906420707828
 20
-447.7522407835331
 30
0.0
 10
251.9359527887818
 20
-448.5812467863743
 30
0.0
 10
251.9359527887818
 20
-448.5812467863743
 30
0.0
 10
251.9359527887818
 20
-448.5812467863743
 30
0.0
 10
250.3962840389349
 20
-451.8209228515624
 30
0.0
 10
250.3962840389349
 20
-451.8209228515624
 30
0.0
 10
250.3962840389349
 20
-451.8209228515624
 30
0.0
 10
251.9359527887818
 20
-460.2237577267842
 30
0.0
 10
251.9359527887818
 20
-460.2237577267842
 30
0.0
 10
251.9359527887818
 20
-460.2237577267842
 30
0.0
 10
268.9261352911817
 20
-470.7070618240104
 30
0.0
 10
271.4565880043064
 20
-470.1648219569124
 30
0.0
 10
271.4565880043064
 20
-470.1648219569124
 30
0.0
 10
276.9921241998964
 20
-470.1851545160134
 30
0.0
 10
276.9921241998964
 20
-470.1851545160134
 30
0.0
 10
276.9921241998964
 20
-470.1851545160134
 30
0.0
 10
278.9739389905708
 20
-460.9467442162476
 30
0.0
 10
278.9739389905708
 20
-460.9467442162476
 30
0.0
 10
278.9739389905708
 20
-460.9467442162476
 30
0.0
 10
269.4904892546856
 20
-457.1111111111149
 30
0.0
 10
269.4904892546856
 20
-457.1111111111149
 30
0.0
 10
269.4904892546856
 20
-457.1111111111149
 30
0.0
 10
254.1906420707828
 20
-447.7522407835331
 30
0.0
 10
254.1906420707828
 20
-447.7522407835331
 30
0.0
  0
LWPOLYLINE
  5
16A
330
70
100
AcDbEntity
  8
图层 1
 62
   250
420
  2299925
370
    35
100
AcDbPolyline
 90
        7
 70
     0
 43
0.0
 10
255.5274704431804
 20
-450.9462664639049
 10
252.6483897131602
 20
-451.7619636125309
 10
253.3819257677096
 20
-457.9107280241369
 10
269.4904892546856
 20
-466.1883962648608
 10
274.7776962615144
 20
-467.8518518518558
 10
275.3868312757204
 20
-462.0312239504437
 10
257.5849001122388
 20
-452.9648011294757
  0
SPLINE
  5
16B
330
70
100
AcDbEntity
  8
图层 1
 62
   250
420
  2299925
370
    35
100
AcDbSpline
210
0.0
220
0.0
230
1.0
 70
     9
 71
     3
 72
    17
 73
    13
 74
     0
 42
0.0000000001
 43
0.0000000001
 40
0.0
 40
0.0
 40
0.0
 40
0.0
 40
1.0
 40
1.0
 40
1.0
 40
2.0
 40
2.0
 40
2.0
 40
3.0
 40
3.0
 40
3.0
 40
4.0
 40
4.0
 40
4.0
 40
4.0
 10
146.5088679209702
 20
-486.8326160285123
 30
0.0
 10
146.5088679209702
 20
-486.8326160285123
 30
0.0
 10
112.4972089848934
 20
-508.1691225660506
 30
0.0
 10
109.8037391002044
 20
-519.8936385346987
 30
0.0
 10
109.8037391002044
 20
-519.8936385346987
 30
0.0
 10
120.2079266940027
 20
-521.5836588545007
 30
0.0
 10
128.1563035105864
 20
-532.8328566082072
 30
0.0
 10
128.1563035105864
 20
-532.8328566082072
 30
0.0
 10
150.311413640532
 20
-502.82077525571
 30
0.0
 10
162.880939769082
 20
-499.9231631690254
 30
0.0
 10
162.880939769082
 20
-499.9231631690254
 30
0.0
 10
155.0645957899833
 20
-488.364196943332
 30
0.0
 10
146.5088679209702
 20
-486.8326160285123
 30
0.0
  0
SPLINE
  5
16C
330
70
100
AcDbEntity
  8
图层 1
 62
   250
420
  2299925
370
    35
100
AcDbSpline
210
0.0
220
0.0
230
1.0
 70
     8
 71
     3
 72
    14
 73
    10
 74
     0
 42
0.0000000001
 43
0.0000000001
 40
0.0
 40
0.0
 40
0.0
 40
0.0
 40
1.0
 40
1.0
 40
1.0
 40
2.0
 40
2.0
 40
2.0
 40
3.0
 40
3.0
 40
3.0
 40
3.0
 10
145.2941658161107
 20
-488.7867020232915
 30
0.0
 10
145.2941658161107
 20
-488.7867020232915
 30
0.0
 10
158.0221313496422
 20
-493.2758184977737
 30
0.0
 10
158.9727677795326
 20
-498.1346269172136
 30
0.0
 10
158.9727677795326
 20
-498.1346269172136
 30
0.0
 10
133.3055841724926
 20
-516.1608652496215
 30
0.0
 10
128.0770838080961
 20
-527.1111111111149
 30
0.0
 10
128.0770838080961
 20
-527.1111111111149
 30
0.0
 10
116.0356890294861
 20
-517.8339262699428
 30
0.0
 10
113.8703504947352
 20
-518.4676838898686
 30
0.0
  0
SPLINE
  5
16D
330
70
100
AcDbEntity
  8
图层 1
 62
   250
420
  2299925
370
    35
100
AcDbSpline
210
0.0
220
0.0
230
1.0
 70
     8
 71
     3
 72
     8
 73
     4
 74
     0
 42
0.0000000001
 43
0.0000000001
 40
0.0
 40
0.0
 40
0.0
 40
0.0
 40
1.0
 40
1.0
 40
1.0
 40
1.0
 10
146.7289581298828
 20
-187.8549346923828
 30
0.0
 10
146.4736328125
 20
-188.3477325439453
 30
0.0
 10
146.2182922363281
 20
-188.8405303955078
 30
0.0
 10
145.9629669189453
 20
-189.3333282470703
 30
0.0
  0
SPLINE
  5
16E
330
70
100
AcDbEntity
  8
图层 1
 62
   250
420
  2299925
370
    35
100
AcDbSpline
210
0.0
220
0.0
230
1.0
 70
     8
 71
     3
 72
    23
 73
    19
 74
     0
 42
0.0000000001
 43
0.0000000001
 40
0.0
 40
0.0
 40
0.0
 40
0.0
 40
1.0
 40
1.0
 40
1.0
 40
2.0
 40
2.0
 40
2.0
 40
3.0
 40
3.0
 40
3.0
 40
4.0
 40
4.0
 40
4.0
 40
5.0
 40
5.0
 40
5.0
 40
6.0
 40
6.0
 40
6.0
 40
6.0
 10
219.9135106479471
 20
-462.4745973559111
 30
0.0
 10
220.0968104089607
 20
-463.440452696901
 30
0.0
 10
220.7464251488364
 20
-464.2385652671037
 30
0.0
 10
221.2428771594205
 20
-465.0870997350485
 30
0.0
 10
222.3794438635368
 20
-467.0297141635765
 30
0.0
 10
222.7391503948993
 20
-469.3130731051496
 30
0.0
 10
223.1488675150949
 20
-471.5261403045933
 30
0.0
 10
223.8475031422022
 20
-475.2997886802768
 30
0.0
 10
224.7503896321396
 20
-479.0356140900785
 30
0.0
 10
225.8522561615346
 20
-482.7118082961042
 30
0.0
 10
226.3035550861214
 20
-484.2174917433258
 30
0.0
 10
226.7896543119205
 20
-485.7169667359267
 30
0.0
 10
227.4374009942212
 20
-487.1491600142853
 30
0.0
 10
227.9601511278088
 20
-488.3049810367538
 30
0.0
 10
228.5897623894389
 20
-489.4215255230519
 30
0.0
 10
228.9397489402363
 20
-490.640828336298
 30
0.0
 10
229.3047808289466
 20
-491.9125467827198
 30
0.0
 10
229.4260950866001
 20
-493.3922077072857
 30
0.0
 10
230.4460632694254
 20
-494.2349300751775
 30
0.0
  0
SPLINE
  5
16F
330
70
100
AcDbEntity
  8
图层 1
 62
   250
420
  2299925
370
    35
100
AcDbSpline
210
0.0
220
0.0
230
1.0
 70
     8
 71
     3
 72
    23
 73
    19
 74
     0
 42
0.0000000001
 43
0.0000000001
 40
0.0
 40
0.0
 40
0.0
 40
0.0
 40
1.0
 40
1.0
 40
1.0
 40
2.0
 40
2.0
 40
2.0
 40
3.0
 40
3.0
 40
3.0
 40
4.0
 40
4.0
 40
4.0
 40
5.0
 40
5.0
 40
5.0
 40
6.0
 40
6.0
 40
6.0
 40
6.0
 10
230.2303363663914
 20
-495.6594758689389
 30
0.0
 10
230.8451940704062
 20
-497.3078074962522
 30
0.0
 10
231.4638600946119
 20
-498.9705065160124
 30
0.0
 10
231.7291789600931
 20
-500.7096594849644
 30
0.0
 10
231.8669932826497
 20
-501.6130254616927
 30
0.0
 10
231.9079898466061
 20
-502.528733052337
 30
0.0
 10
232.0352841992544
 20
-503.4336413500859
 30
0.0
 10
232.160666566464
 20
-504.3249577173883
 30
0.0
 10
232.3692550329724
 20
-505.2022609289324
 30
0.0
 10
232.5851432901363
 20
-506.0760789046853
 30
0.0
 10
233.1627447519831
 20
-508.4139486719723
 30
0.0
 10
233.7948152816416
 20
-510.7383609298685
 30
0.0
 10
234.4806690759251
 20
-513.0467939496866
 30
0.0
 10
234.557207071688
 20
-513.304401485735
 30
0.0
 10
234.6347274400878
 20
-513.5792938820705
 30
0.0
 10
234.5599336495861
 20
-513.8374131804466
 30
0.0
 10
234.4851398590836
 20
-514.0955324788229
 30
0.0
 10
234.1909823086135
 20
-514.3081859815866
 30
0.0
 10
233.9471783285317
 20
-514.1951404041065
 30
0.0
  0
SPLINE
  5
170
330
70
100
AcDbEntity
  8
图层 1
 62
   250
420
  2299925
370
    35
100
AcDbSpline
210
0.0
220
0.0
230
1.0
 70
     8
 71
     3
 72
    23
 73
    19
 74
     0
 42
0.0000000001
 43
0.0000000001
 40
0.0
 40
0.0
 40
0.0
 40
0.0
 40
1.0
 40
1.0
 40
1.0
 40
2.0
 40
2.0
 40
2.0
 40
3.0
 40
3.0
 40
3.0
 40
4.0
 40
4.0
 40
4.0
 40
5.0
 40
5.0
 40
5.0
 40
6.0
 40
6.0
 40
6.0
 40
6.0
 10
233.7461288533632
 20
-504.2194604249398
 30
0.0
 10
233.5675860474385
 20
-504.851568650436
 30
0.0
 10
233.7411575199749
 20
-505.5235545240612
 30
0.0
 10
233.9157302180902
 20
-506.1567706920177
 30
0.0
 10
235.5181054154
 20
-511.9689616986433
 30
0.0
 10
237.2342230808826
 20
-517.7497945382547
 30
0.0
 10
239.0627694460582
 20
-523.4948435807527
 30
0.0
 10
239.203308748074
 20
-523.9363993962124
 30
0.0
 10
239.3485692713666
 20
-524.3859515910644
 30
0.0
 10
239.6193124096098
 20
-524.7620114089332
 30
0.0
 10
240.2660734424298
 20
-525.6603551866974
 30
0.0
 10
241.545882579675
 20
-526.031657730793
 30
0.0
 10
241.9782023590697
 20
-527.0506871388915
 30
0.0
 10
242.1194850188022
 20
-527.3837075494448
 30
0.0
 10
242.1515757697907
 20
-527.7527423397368
 30
0.0
 10
242.2674456497162
 20
-528.0954338767641
 30
0.0
 10
242.6592652535764
 20
-529.2542641093896
 30
0.0
 10
244.1224295700913
 20
-529.9129246350312
 30
0.0
 10
245.249728657488
 20
-529.4379437125463
 30
0.0
  0
SPLINE
  5
171
330
70
100
AcDbEntity
  8
图层 1
 62
   250
420
  2299925
370
    35
100
AcDbSpline
210
0.0
220
0.0
230
1.0
 70
     8
 71
     3
 72
    26
 73
    22
 74
     0
 42
0.0000000001
 43
0.0000000001
 40
0.0
 40
0.0
 40
0.0
 40
0.0
 40
1.0
 40
1.0
 40
1.0
 40
2.0
 40
2.0
 40
2.0
 40
3.0
 40
3.0
 40
3.0
 40
4.0
 40
4.0
 40
4.0
 40
5.0
 40
5.0
 40
5.0
 40
6.0
 40
6.0
 40
6.0
 40
7.0
 40
7.0
 40
7.0
 40
7.0
 10
240.674798456067
 20
-525.4000391705448
 30
0.0
 10
241.574632274499
 20
-525.6767071122449
 30
0.0
 10
242.3966979002435
 20
-526.2018211254508
 30
0.0
 10
243.0260367859491
 20
-526.901948697894
 30
0.0
 10
243.775994335012
 20
-527.7362626619888
 30
0.0
 10
244.2667667663081
 20
-528.8194285184126
 30
0.0
 10
245.1821361392967
 20
-529.4679768856567
 30
0.0
 10
245.7008687343723
 20
-529.8355037851197
 30
0.0
 10
246.3268039862705
 20
-530.039211906731
 30
0.0
 10
246.8180034543256
 20
-530.4427989666219
 30
0.0
 10
248.0659029795979
 20
-531.4681169593495
 30
0.0
 10
248.1526957063306
 20
-533.5116685194752
 30
0.0
 10
249.4906733694106
 20
-534.4162933720035
 30
0.0
 10
250.1047043986282
 20
-534.8314477679886
 30
0.0
 10
250.9269986154905
 20
-534.9573746923452
 30
0.0
 10
251.3911207314059
 20
-535.5352827725164
 30
0.0
 10
251.7152656665039
 20
-535.9388961754667
 30
0.0
 10
251.7939727476414
 20
-536.4825039811676
 30
0.0
 10
252.0213567550027
 20
-536.9475526288916
 30
0.0
 10
252.2787832091599
 20
-537.474044470091
 30
0.0
 10
252.7379622133249
 20
-537.8987258358974
 30
0.0
 10
253.2829168425269
 20
-538.1143330356699
 30
0.0
  0
SPLINE
  5
172
330
70
100
AcDbEntity
  8
图层 1
 62
   250
420
  2299925
370
    35
100
AcDbSpline
210
0.0
220
0.0
230
1.0
 70
     8
 71
     3
 72
    20
 73
    16
 74
     0
 42
0.0000000001
 43
0.0000000001
 40
0.0
 40
0.0
 40
0.0
 40
0.0
 40
1.0
 40
1.0
 40
1.0
 40
2.0
 40
2.0
 40
2.0
 40
3.0
 40
3.0
 40
3.0
 40
4.0
 40
4.0
 40
4.0
 40
5.0
 40
5.0
 40
5.0
 40
5.0
 10
252.7407889208534
 20
-539.3170899648903
 30
0.0
 10
253.178687988795
 20
-539.7583291253958
 30
0.0
 10
253.6165870567365
 20
-540.1995682859014
 30
0.0
 10
254.0544861246799
 20
-540.640807446407
 30
0.0
 10
254.1143005630729
 20
-540.7010780901473
 30
0.0
 10
254.1791695688189
 20
-540.7786207305981
 30
0.0
 10
254.1571529598796
 20
-540.8606304022032
 30
0.0
 10
254.1394345993758
 20
-540.9266301830375
 30
0.0
 10
254.0728072461907
 20
-540.9643426002312
 30
0.0
 10
254.0198295717301
 20
-541.0075083168776
 30
0.0
 10
253.882220592729
 20
-541.119630968611
 30
0.0
 10
253.8164326799624
 20
-541.3129993289021
 30
0.0
 10
253.857111882292
 20
-541.4857791810718
 30
0.0
 10
253.8571399904776
 20
-541.1412037832178
 30
0.0
 10
253.8571678719027
 20
-540.7966283475871
 30
0.0
 10
253.8571957533268
 20
-540.4520529119563
 30
0.0
  0
SPLINE
  5
173
330
70
100
AcDbEntity
  8
图层 1
 62
   250
420
  2299925
370
    35
100
AcDbSpline
210
0.0
220
0.0
230
1.0
 70
     8
 71
     3
 72
    56
 73
    52
 74
     0
 42
0.0000000001
 43
0.0000000001
 40
0.0
 40
0.0
 40
0.0
 40
0.0
 40
1.0
 40
1.0
 40
1.0
 40
2.0
 40
2.0
 40
2.0
 40
3.0
 40
3.0
 40
3.0
 40
4.0
 40
4.0
 40
4.0
 40
5.0
 40
5.0
 40
5.0
 40
6.0
 40
6.0
 40
6.0
 40
7.0
 40
7.0
 40
7.0
 40
8.0
 40
8.0
 40
8.0
 40
9.0
 40
9.0
 40
9.0
 40
10.0
 40
10.0
 40
10.0
 40
11.0
 40
11.0
 40
11.0
 40
12.0
 40
12.0
 40
12.0
 40
13.0
 40
13.0
 40
13.0
 40
14.0
 40
14.0
 40
14.0
 40
15.0
 40
15.0
 40
15.0
 40
16.0
 40
16.0
 40
16.0
 40
17.0
 40
17.0
 40
17.0
 40
17.0
 10
256.6430351505787
 20
-532.1872907925117
 30
0.0
 10
260.5249265435141
 20
-529.8745488849472
 30
0.0
 10
264.2358993728494
 20
-527.2749931587186
 30
0.0
 10
267.7357096544811
 20
-524.416814733544
 30
0.0
 10
268.1416364128454
 20
-524.0853078826348
 30
0.0
 10
268.5457709468847
 20
-523.7495558568334
 30
0.0
 10
268.9843262093737
 20
-523.4626018429553
 30
0.0
 10
269.684611955644
 20
-523.004393233743
 30
0.0
 10
270.4608638140689
 20
-522.6780585244887
 30
0.0
 10
271.2201564893831
 20
-522.3261638105541
 30
0.0
 10
272.1903053997557
 20
-521.8765476955377
 30
0.0
 10
273.138813121699
 20
-521.3819012824314
 30
0.0
 10
274.0869021755443
 20
-520.8874614946816
 30
0.0
 10
275.9320851607199
 20
-519.9251764912223
 30
0.0
 10
277.7772681449587
 20
-518.9628914862078
 30
0.0
 10
279.6224511291985
 20
-518.0006064811932
 30
0.0
 10
282.6830504581803
 20
-516.4044673119605
 30
0.0
 10
285.7457995516579
 20
-514.8071280554595
 30
0.0
 10
288.7056753388997
 20
-513.0311596367919
 30
0.0
 10
286.9494363680087
 20
-513.610133424776
 30
0.0
 10
285.3100804462592
 20
-514.541249003194
 30
0.0
 10
283.9133075155842
 20
-515.7531117637063
 30
0.0
 10
285.9362143035351
 20
-514.1585527031311
 30
0.0
 10
287.9591210916224
 20
-512.5639936400585
 30
0.0
 10
289.9820278797097
 20
-510.9694345769858
 30
0.0
 10
291.3449960054886
 20
-509.8950729711705
 30
0.0
 10
292.7354213106882
 20
-508.8048641475979
 30
0.0
 10
294.3566073036154
 20
-508.1854362402209
 30
0.0
 10
295.403158395352
 20
-507.7855666694904
 30
0.0
 10
296.5189002972211
 20
-507.5932222956107
 30
0.0
 10
297.5710662807705
 20
-507.2083696122881
 30
0.0
 10
299.7585557516504
 20
-506.4082476040511
 30
0.0
 10
301.5576521267048
 20
-504.8245085697108
 30
0.0
 10
303.5911089737456
 20
-503.688569024518
 30
0.0
 10
305.8158076018153
 20
-502.4457968783735
 30
0.0
 10
308.2975158509598
 20
-501.7517452372012
 30
0.0
 10
310.7525030569231
 20
-501.0685143589999
 30
0.0
 10
311.3974942583718
 20
-500.8890112261833
 30
0.0
 10
312.0497657589058
 20
-500.7083361164641
 30
0.0
 10
312.7188210125551
 20
-500.6838393673405
 30
0.0
 10
314.3219592860333
 20
-500.6251421584201
 30
0.0
 10
315.8190930606415
 20
-501.4631664112057
 30
0.0
 10
317.1073537879674
 20
-502.419138159963
 30
0.0
 10
321.861361260535
 20
-505.9469153741065
 30
0.0
 10
325.1375265271254
 20
-511.4196677718773
 30
0.0
 10
330.4570613754477
 20
-514.0174260591338
 30
0.0
 10
331.7319080726211
 20
-514.639990105803
 30
0.0
 10
333.1008365668786
 20
-515.0824154643942
 30
0.0
 10
334.2924157407451
 20
-515.8524541190344
 30
0.0
 10
335.4839949146117
 20
-516.6224927736729
 30
0.0
 10
336.5155927307605
 20
-517.8227926180843
 30
0.0
 10
336.6076954112032
 20
-519.2385389066148
 30
0.0
  0
SPLINE
  5
174
330
70
100
AcDbEntity
  8
图层 1
 62
   250
420
  2299925
370
    35
100
AcDbSpline
210
0.0
220
0.0
230
1.0
 70
     8
 71
     3
 72
    29
 73
    25
 74
     0
 42
0.0000000001
 43
0.0000000001
 40
0.0
 40
0.0
 40
0.0
 40
0.0
 40
1.0
 40
1.0
 40
1.0
 40
2.0
 40
2.0
 40
2.0
 40
3.0
 40
3.0
 40
3.0
 40
4.0
 40
4.0
 40
4.0
 40
5.0
 40
5.0
 40
5.0
 40
6.0
 40
6.0
 40
6.0
 40
7.0
 40
7.0
 40
7.0
 40
8.0
 40
8.0
 40
8.0
 40
8.0
 10
296.0742019338368
 20
-507.8169606395185
 30
0.0
 10
296.2662403346722
 20
-507.7716272565994
 30
0.0
 10
296.4582787355084
 20
-507.7262938736803
 30
0.0
 10
296.650317136342
 20
-507.680960490763
 30
0.0
 10
295.4517675808765
 20
-507.7506097190616
 30
0.0
 10
294.292539732458
 20
-508.3412438526375
 30
0.0
 10
293.5316746403114
 20
-509.2699291403187
 30
0.0
 10
297.6222698905585
 20
-505.1074925831381
 30
0.0
 10
303.1837577552906
 20
-502.7680205014112
 30
0.0
 10
308.6725901958889
 20
-500.7852027628286
 30
0.0
 10
310.2057305586113
 20
-500.2313627682578
 30
0.0
 10
311.7533631880397
 20
-499.695012101416
 30
0.0
 10
313.3564243108503
 20
-499.3992877933269
 30
0.0
 10
317.2530639097804
 20
-498.6804561953777
 30
0.0
 10
321.2543164684884
 20
-499.4138670905885
 30
0.0
 10
325.1484500140923
 20
-500.1461527720057
 30
0.0
 10
326.1927641627644
 20
-500.3425343868857
 30
0.0
 10
327.2425007149759
 20
-500.5403777275605
 30
0.0
 10
328.2412438648444
 20
-500.9032410281306
 30
0.0
 10
328.9488849338741
 20
-501.1603403337121
 30
0.0
 10
329.6244983017496
 20
-501.498075018013
 30
0.0
 10
330.2867484303988
 20
-501.8562379919457
 30
0.0
 10
335.7839776543042
 20
-504.8292899370462
 30
0.0
 10
340.4644621482403
 20
-509.2951711203604
 30
0.0
 10
343.692065798743
 20
-514.6469128970493
 30
0.0
  0
SPLINE
  5
175
330
70
100
AcDbEntity
  8
图层 1
 62
   250
420
  2299925
370
    35
100
AcDbSpline
210
0.0
220
0.0
230
1.0
 70
     8
 71
     3
 72
    41
 73
    37
 74
     0
 42
0.0000000001
 43
0.0000000001
 40
0.0
 40
0.0
 40
0.0
 40
0.0
 40
1.0
 40
1.0
 40
1.0
 40
2.0
 40
2.0
 40
2.0
 40
3.0
 40
3.0
 40
3.0
 40
4.0
 40
4.0
 40
4.0
 40
5.0
 40
5.0
 40
5.0
 40
6.0
 40
6.0
 40
6.0
 40
7.0
 40
7.0
 40
7.0
 40
8.0
 40
8.0
 40
8.0
 40
9.0
 40
9.0
 40
9.0
 40
10.0
 40
10.0
 40
10.0
 40
11.0
 40
11.0
 40
11.0
 40
12.0
 40
12.0
 40
12.0
 40
12.0
 10
334.6309040974356
 20
-518.958028766734
 30
0.0
 10
335.3034646720062
 20
-519.4704716906326
 30
0.0
 10
336.1870517154985
 20
-519.5802822729474
 30
0.0
 10
337.0152054711362
 20
-519.7508602133257
 30
0.0
 10
337.8433592267738
 20
-519.9214381537058
 30
0.0
 10
338.7294364957688
 20
-520.2237943837844
 30
0.0
 10
339.1691604287426
 20
-520.9459981912313
 30
0.0
 10
338.6699588466618
 20
-520.9318829504318
 30
0.0
 10
338.1707572645464
 20
-520.9177677096322
 30
0.0
 10
337.6715556824311
 20
-520.9036524688344
 30
0.0
 10
337.3331042482277
 20
-520.8940825421341
 30
0.0
 10
336.9655890559025
 20
-520.8738333749115
 30
0.0
 10
336.7084824242102
 20
-520.6535219212674
 30
0.0
 10
336.3815016164299
 20
-520.3733361572139
 30
0.0
 10
336.3198925615798
 20
-519.8373714202935
 30
0.0
 10
335.9393277646541
 20
-519.6358994730253
 30
0.0
 10
335.7100528695974
 20
-519.7221065648809
 30
0.0
 10
335.8761404480065
 20
-520.0682671451832
 30
0.0
 10
336.0644088762383
 20
-520.2249631552676
 30
0.0
 10
337.0993538753209
 20
-521.0863489624353
 30
0.0
 10
338.1723361644235
 20
-521.9646944059404
 30
0.0
 10
339.4578856273074
 20
-522.3652680425675
 30
0.0
 10
339.7953662027812
 20
-522.4704260516773
 30
0.0
 10
340.1676059464007
 20
-522.5557116386044
 30
0.0
 10
340.395087836845
 20
-522.8262727876881
 30
0.0
 10
340.5693355036728
 20
-523.0335186286465
 30
0.0
 10
340.6296035984979
 20
-523.3203165437535
 30
0.0
 10
340.8123123882142
 20
-523.5201429157223
 30
0.0
 10
341.1569034586591
 20
-523.8970180658634
 30
0.0
 10
341.7986246004511
 20
-523.8344264064944
 30
0.0
 10
342.1763024833581
 20
-524.1781374823004
 30
0.0
 10
342.3299439132352
 20
-524.3179610409733
 30
0.0
 10
342.4273207882797
 20
-524.5156128327107
 30
0.0
 10
342.5969239899568
 20
-524.635575608896
 30
0.0
 10
342.7665271916339
 20
-524.7555383850831
 30
0.0
 10
343.0643919021623
 20
-524.7378408138829
 30
0.0
 10
343.1179351108367
 20
-524.5371185219119
 30
0.0
  0
SPLINE
  5
176
330
70
100
AcDbEntity
  8
图层 1
 62
   250
420
  2299925
370
    35
100
AcDbSpline
210
0.0
220
0.0
230
1.0
 70
     8
 71
     3
 72
    50
 73
    46
 74
     0
 42
0.0000000001
 43
0.0000000001
 40
0.0
 40
0.0
 40
0.0
 40
0.0
 40
1.0
 40
1.0
 40
1.0
 40
2.0
 40
2.0
 40
2.0
 40
3.0
 40
3.0
 40
3.0
 40
4.0
 40
4.0
 40
4.0
 40
5.0
 40
5.0
 40
5.0
 40
6.0
 40
6.0
 40
6.0
 40
7.0
 40
7.0
 40
7.0
 40
8.0
 40
8.0
 40
8.0
 40
9.0
 40
9.0
 40
9.0
 40
10.0
 40
10.0
 40
10.0
 40
11.0
 40
11.0
 40
11.0
 40
12.0
 40
12.0
 40
12.0
 40
13.0
 40
13.0
 40
13.0
 40
14.0
 40
14.0
 40
14.0
 40
15.0
 40
15.0
 40
15.0
 40
15.0
 10
345.8293541119165
 20
-513.5861951283605
 30
0.0
 10
346.5890600442999
 20
-513.1706308720058
 30
0.0
 10
347.4006007456337
 20
-512.849941579936
 30
0.0
 10
348.239163088996
 20
-512.6339324339387
 30
0.0
 10
349.3526942838744
 20
-512.3470927933213
 30
0.0
 10
350.6298047404471
 20
-512.1749697644808
 30
0.0
 10
351.319809743205
 20
-511.2551209739321
 30
0.0
 10
350.4881249274604
 20
-511.3720868433211
 30
0.0
 10
349.6792982621955
 20
-511.6494749587582
 30
0.0
 10
348.9508788010753
 20
-512.0675487959888
 30
0.0
 10
350.3041369241964
 20
-511.4912395955889
 30
0.0
 10
351.3995546202969
 20
-510.4428706903818
 30
0.0
 10
352.690267881273
 20
-509.7375345150339
 30
0.0
 10
354.829785474778
 20
-508.5683521675401
 30
0.0
 10
357.4201835537187
 20
-508.3849444843036
 30
0.0
 10
359.4918845510528
 20
-507.0994181825226
 30
0.0
 10
359.6079723999064
 20
-507.0273836632168
 30
0.0
 10
359.7331613650676
 20
-506.94909346844
 30
0.0
 10
359.8693745968121
 20
-506.959644110555
 30
0.0
 10
360.020538057066
 20
-506.9713527484709
 30
0.0
 10
360.1394475917568
 20
-507.0883215306658
 30
0.0
 10
360.2762782731679
 20
-507.1536273390939
 30
0.0
 10
360.7344975251617
 20
-507.3723237597751
 30
0.0
 10
361.4200493771532
 20
-507.035303263934
 30
0.0
 10
361.7188784763548
 20
-507.4457836836755
 30
0.0
 10
361.7903740396814
 20
-507.543992060042
 30
0.0
 10
361.8187586224412
 20
-507.6673018279034
 30
0.0
 10
361.8827085277262
 20
-507.7705825251596
 30
0.0
 10
362.0262387636703
 20
-508.0023876158848
 30
0.0
 10
362.3128653968397
 20
-508.0897889263233
 30
0.0
 10
362.5552296439855
 20
-508.2146651943494
 30
0.0
 10
363.5957749501868
 20
-508.7507967941219
 30
0.0
 10
363.917119554957
 20
-510.0717263754304
 30
0.0
 10
364.6901390578587
 20
-510.9507101210984
 30
0.0
 10
365.1292951038085
 20
-511.4500649943002
 30
0.0
 10
365.7105448884067
 20
-511.7994324620431
 30
0.0
 10
366.2130975398086
 20
-512.2349254209257
 30
0.0
 10
366.7475438453512
 20
-512.6980561981272
 30
0.0
 10
367.1900153935876
 20
-513.2560181841617
 30
0.0
 10
367.6290897723666
 20
-513.8103977058672
 30
0.0
 10
368.6723991284052
 20
-515.1276902014342
 30
0.0
 10
369.7157085066574
 20
-516.4449826780746
 30
0.0
 10
370.7590178849096
 20
-517.7622751547151
 30
0.0
 10
371.0597376919159
 20
-518.1419669105089
 30
0.0
 10
371.5899757263124
 20
-518.5540861333793
 30
0.0
 10
371.9611478390434
 20
-518.2429117549236
 30
0.0
  0
SPLINE
  5
177
330
70
100
AcDbEntity
  8
图层 1
 62
   250
420
  2299925
370
    35
100
AcDbSpline
210
0.0
220
0.0
230
1.0
 70
     8
 71
     3
 72
    11
 73
     7
 74
     0
 42
0.0000000001
 43
0.0000000001
 40
0.0
 40
0.0
 40
0.0
 40
0.0
 40
1.0
 40
1.0
 40
1.0
 40
2.0
 40
2.0
 40
2.0
 40
2.0
 10
364.8639629622558
 20
-511.4559165760547
 30
0.0
 10
364.8888573101085
 20
-511.5992364592057
 30
0.0
 10
365.045362355635
 20
-511.6707756127579
 30
0.0
 10
365.1726513555459
 20
-511.7411874580921
 30
0.0
 10
365.2999403554568
 20
-511.8115993034243
 30
0.0
 10
365.4297409628962
 20
-511.9558712412199
 30
0.0
 10
365.3626387795921
 20
-512.0849356222752
 30
0.0
  0
SPLINE
  5
178
330
70
100
AcDbEntity
  8
图层 1
 62
   250
420
  2299925
370
    35
100
AcDbSpline
210
0.0
220
0.0
230
1.0
 70
     8
 71
     3
 72
    26
 73
    22
 74
     0
 42
0.0000000001
 43
0.0000000001
 40
0.0
 40
0.0
 40
0.0
 40
0.0
 40
1.0
 40
1.0
 40
1.0
 40
2.0
 40
2.0
 40
2.0
 40
3.0
 40
3.0
 40
3.0
 40
4.0
 40
4.0
 40
4.0
 40
5.0
 40
5.0
 40
5.0
 40
6.0
 40
6.0
 40
6.0
 40
7.0
 40
7.0
 40
7.0
 40
7.0
 10
363.6899740459867
 20
-511.0360276284154
 30
0.0
 10
362.0719253511743
 20
-510.3659531980774
 30
0.0
 10
360.2734628332
 20
-510.305651261684
 30
0.0
 10
358.5221902907743
 20
-510.3168674607805
 30
0.0
 10
357.9482490917235
 20
-510.3205433211932
 30
0.0
 10
357.3696541501522
 20
-510.3314160189475
 30
0.0
 10
356.8093665531651
 20
-510.4559142932812
 30
0.0
 10
356.249078956178
 20
-510.5804125676131
 30
0.0
 10
355.7021469121246
 20
-510.8273421847443
 30
0.0
 10
355.3059594035349
 20
-511.2426221742553
 30
0.0
 10
354.9200072782878
 20
-511.6471735417016
 30
0.0
 10
354.7016652835009
 20
-512.1812709754358
 30
0.0
 10
354.3657653738683
 20
-512.6282520684307
 30
0.0
 10
353.6366178286316
 20
-513.5985267036139
 30
0.0
 10
352.3953969199865
 20
-514.1087897674351
 30
0.0
 10
351.7464493271109
 20
-515.1344388430389
 30
0.0
 10
351.593982310811
 20
-515.3754095052263
 30
0.0
 10
351.4791804579981
 20
-515.6381302700192
 30
0.0
 10
351.3365161274833
 20
-515.8850309780428
 30
0.0
 10
351.1862900978977
 20
-516.1450182720564
 30
0.0
 10
351.005160495095
 20
-516.3871307329536
 30
0.0
 10
350.798158820091
 20
-516.6046429245871
 30
0.0
  0
SPLINE
  5
179
330
70
100
AcDbEntity
  8
图层 1
 62
   250
420
  2299925
370
    35
100
AcDbSpline
210
0.0
220
0.0
230
1.0
 70
     8
 71
     3
 72
    20
 73
    16
 74
     0
 42
0.0000000001
 43
0.0000000001
 40
0.0
 40
0.0
 40
0.0
 40
0.0
 40
1.0
 40
1.0
 40
1.0
 40
2.0
 40
2.0
 40
2.0
 40
3.0
 40
3.0
 40
3.0
 40
4.0
 40
4.0
 40
4.0
 40
5.0
 40
5.0
 40
5.0
 40
5.0
 10
370.5729486241998
 20
-513.3722796823731
 30
0.0
 10
371.0862592498724
 20
-514.1774625776925
 30
0.0
 10
372.0493624181672
 20
-514.5505517669989
 30
0.0
 10
372.9470720527534
 20
-514.8760125254921
 30
0.0
 10
373.8447816873377
 20
-515.2014732839852
 30
0.0
 10
374.8071040957384
 20
-515.5807083679974
 30
0.0
 10
375.3119440802257
 20
-516.3912291162869
 30
0.0
 10
375.4939775710882
 20
-516.6834837481819
 30
0.0
 10
375.6197956780397
 20
-517.0344297992796
 30
0.0
 10
375.9095556436496
 20
-517.2204085961547
 30
0.0
 10
376.0426002875411
 20
-517.3058016785798
 30
0.0
 10
376.1983290723892
 20
-517.3472605396618
 30
0.0
 10
376.3512147261226
 20
-517.3874954629791
 30
0.0
 10
376.8366944158188
 20
-517.5152591639162
 30
0.0
 10
377.3221740907993
 20
-517.6430228552489
 30
0.0
 10
377.8076537657816
 20
-517.7707865465836
 30
0.0
  0
SPLINE
  5
17A
330
70
100
AcDbEntity
  8
图层 1
 62
   250
420
  2299925
370
    35
100
AcDbSpline
210
0.0
220
0.0
230
1.0
 70
     8
 71
     3
 72
    20
 73
    16
 74
     0
 42
0.0000000001
 43
0.0000000001
 40
0.0
 40
0.0
 40
0.0
 40
0.0
 40
1.0
 40
1.0
 40
1.0
 40
2.0
 40
2.0
 40
2.0
 40
3.0
 40
3.0
 40
3.0
 40
4.0
 40
4.0
 40
4.0
 40
5.0
 40
5.0
 40
5.0
 40
5.0
 10
373.8566005665034
 20
-518.8467586263469
 30
0.0
 10
373.7816661456145
 20
-519.1197356216908
 30
0.0
 10
373.9178541037491
 20
-519.4015020914703
 30
0.0
 10
374.0500283032543
 20
-519.6518250596654
 30
0.0
 10
374.3029661459932
 20
-520.1308603981196
 30
0.0
 10
374.5638007852303
 20
-520.6202580354839
 30
0.0
 10
374.9646840135792
 20
-520.9845999577737
 30
0.0
 10
375.2244552125139
 20
-521.2206925662212
 30
0.0
 10
375.5373401084635
 20
-521.3984699505727
 30
0.0
 10
375.7683869078119
 20
-521.6627390751873
 30
0.0
 10
375.8772944217672
 20
-521.7873065041294
 30
0.0
 10
375.9655016704637
 20
-521.9284007148453
 30
0.0
 10
376.0674615010084
 20
-522.0587160291597
 30
0.0
 10
376.2428849636526
 20
-522.2829257154335
 30
0.0
 10
376.4594517939167
 20
-522.4748399346918
 30
0.0
 10
376.7031314823271
 20
-522.6220254619784
 30
0.0
  0
SPLINE
  5
17B
330
70
100
AcDbEntity
  8
图层 1
 62
   250
420
  2299925
370
    35
100
AcDbSpline
210
0.0
220
0.0
230
1.0
 70
     8
 71
     3
 72
     8
 73
     4
 74
     0
 42
0.0000000001
 43
0.0000000001
 40
0.0
 40
0.0
 40
0.0
 40
0.0
 40
1.0
 40
1.0
 40
1.0
 40
1.0
 10
378.0406930649515
 20
-522.3767062515944
 30
0.0
 10
378.0222047018579
 20
-522.9920406436922
 30
0.0
 10
378.3454894582501
 20
-523.5871604579788
 30
0.0
 10
378.2845430202306
 20
-524.1997482193328
 30
0.0
  0
LWPOLYLINE
  5
17C
330
70
100
AcDbEntity
  8
图层 1
 62
   250
420
  2299925
370
    35
100
AcDbPolyline
 90
        1
 70
     0
 43
0.0
 10
378.512282976686
 20
-525.1341223183935
  0
SPLINE
  5
17D
330
70
100
AcDbEntity
  8
图层 1
 62
   250
420
  2299925
370
    35
100
AcDbSpline
210
0.0
220
0.0
230
1.0
 70
     8
 71
     3
 72
    38
 73
    34
 74
     0
 42
0.0000000001
 43
0.0000000001
 40
0.0
 40
0.0
 40
0.0
 40
0.0
 40
1.0
 40
1.0
 40
1.0
 40
2.0
 40
2.0
 40
2.0
 40
3.0
 40
3.0
 40
3.0
 40
4.0
 40
4.0
 40
4.0
 40
5.0
 40
5.0
 40
5.0
 40
6.0
 40
6.0
 40
6.0
 40
7.0
 40
7.0
 40
7.0
 40
8.0
 40
8.0
 40
8.0
 40
9.0
 40
9.0
 40
9.0
 40
10.0
 40
10.0
 40
10.0
 40
11.0
 40
11.0
 40
11.0
 40
11.0
 10
379.4368769571029
 20
-520.2287073865445
 30
0.0
 10
379.598609998202
 20
-519.8768451983087
 30
0.0
 10
379.8320967609907
 20
-519.5581502413587
 30
0.0
 10
380.1188377755043
 20
-519.297873145384
 30
0.0
 10
379.8700130461275
 20
-520.0302747424175
 30
0.0
 10
379.7056428471969
 20
-520.7913310258227
 30
0.0
 10
379.6300252639339
 20
-521.5611412792895
 30
0.0
 10
379.7354829335236
 20
-521.580541366462
 30
0.0
 10
379.8164084552936
 20
-521.4722506984544
 30
0.0
 10
379.8663315623853
 20
-521.3773540871152
 30
0.0
 10
380.2044563375075
 20
-520.7346256577293
 30
0.0
 10
380.4315644625367
 20
-520.033679808681
 30
0.0
 10
380.5346087700964
 20
-519.3147848090339
 30
0.0
 10
380.5563504388629
 20
-519.1631027119383
 30
0.0
 10
380.5771553165432
 20
-519.0002090106808
 30
0.0
 10
380.6792198248113
 20
-518.8859155535028
 30
0.0
 10
380.7542518457612
 20
-518.8018935066302
 30
0.0
 10
380.8630254293566
 20
-518.7566737543201
 30
0.0
 10
380.9495155520381
 20
-518.6845005797131
 30
0.0
 10
381.3211055188221
 20
-518.3744209269443
 30
0.0
 10
381.1418408847749
 20
-517.751940520904
 30
0.0
 10
381.372759015816
 20
-517.3266108707994
 30
0.0
 10
381.4634621643327
 20
-517.1595441211848
 30
0.0
 10
381.6140820464971
 20
-517.0315803610428
 30
0.0
 10
381.7079198856682
 20
-516.8662539609213
 30
0.0
 10
381.8215303704856
 20
-516.6660915483698
 30
0.0
 10
381.8429324818426
 20
-516.4290055960609
 30
0.0
 10
381.8876583557176
 20
-516.2032359598761
 30
0.0
 10
381.9729326519119
 20
-515.7727832999117
 30
0.0
 10
382.1492685200901
 20
-515.3665595692509
 30
0.0
 10
382.3243765425541
 20
-514.9641935959807
 30
0.0
 10
382.6410894019591
 20
-514.2364458537886
 30
0.0
 10
382.9578022533878
 20
-513.5086981092118
 30
0.0
 10
383.2745151048166
 20
-512.780950364633
 30
0.0
  0
SPLINE
  5
17E
330
70
100
AcDbEntity
  8
图层 1
 62
   250
420
  2299925
370
    25
100
AcDbSpline
210
0.0
220
0.0
230
1.0
 70
     8
 71
     3
 72
    14
 73
    10
 74
     0
 42
0.0000000001
 43
0.0000000001
 40
0.0
 40
0.0
 40
0.0
 40
0.0
 40
1.0
 40
1.0
 40
1.0
 40
2.0
 40
2.0
 40
2.0
 40
3.0
 40
3.0
 40
3.0
 40
3.0
 10
407.110105166892
 20
-387.7970510547448
 30
0.0
 10
407.110105166892
 20
-387.7970510547448
 30
0.0
 10
414.2016147033809
 20
-399.4285180716452
 30
0.0
 10
414.2016147033809
 20
-399.4285180716452
 30
0.0
 10
414.2016147033809
 20
-399.4285180716452
 30
0.0
 10
403.4607989495852
 20
-414.3141156458287
 30
0.0
 10
403.4607989495852
 20
-414.3141156458287
 30
0.0
 10
403.4607989495852
 20
-414.3141156458287
 30
0.0
 10
390.5853850167186
 20
-411.921849671482
 30
0.0
 10
359.6050990815911
 20
-432.3671086480244
 30
0.0
  0
SPLINE
  5
17F
330
70
100
AcDbEntity
  8
图层 1
 62
   250
420
  2299925
370
    25
100
AcDbSpline
210
0.0
220
0.0
230
1.0
 70
     8
 71
     3
 72
     8
 73
     4
 74
     0
 42
0.0000000001
 43
0.0000000001
 40
0.0
 40
0.0
 40
0.0
 40
0.0
 40
1.0
 40
1.0
 40
1.0
 40
1.0
 10
360.6973784906586
 20
-430.444444444447
 30
0.0
 10
360.6973784906586
 20
-430.444444444447
 30
0.0
 10
402.3419885306011
 20
-397.3478983989362
 30
0.0
 10
412.7842191077816
 20
-400.2798353909493
 30
0.0
  0
LINE
  5
180
330
70
100
AcDbEntity
  8
图层 1
 62
   250
420
  2299925
370
    25
100
AcDbLine
 10
274.1760394225967
 20
-408.8058244778803
 30
0.0
 11
280.8554123673366
 21
-426.005049691581
 31
0.0
  0
LWPOLYLINE
  5
181
330
70
100
AcDbEntity
  8
图层 1
 62
   250
420
  2299925
370
    18
100
AcDbPolyline
 90
        4
 70
     0
 43
0.0
 10
276.9921241998964
 20
-410.082079851385
 10
284.8668945373283
 20
-425.0946502057649
 10
299.2765845158083
 20
-433.1710291579675
 10
307.7638134157532
 20
-429.918063984056
  0
LINE
  5
182
330
70
100
AcDbEntity
  8
图层 1
 62
   250
420
  2299925
370
    18
100
AcDbLine
 10
253.5221673164106
 20
-382.2904743909121
 30
0.0
 11
263.5037366202032
 21
-401.2227760825481
 31
0.0
  0
LINE
  5
183
330
70
100
AcDbEntity
  8
图层 1
 62
   250
420
  2299925
370
    18
100
AcDbLine
 10
318.6118702195272
 20
-440.4444444444489
 30
0.0
 11
311.4697200553819
 21
-435.1131161180965
 31
0.0
  0
LINE
  5
184
330
70
100
AcDbEntity
  8
图层 1
 62
   250
420
  2299925
370
    18
100
AcDbLine
 10
321.4147015574581
 20
-437.7787802812727
 30
0.0
 11
316.7901364952577
 21
-433.1710291579675
 31
0.0
  0
SPLINE
  5
185
330
70
100
AcDbEntity
  8
图层 1
 62
   250
420
  2299925
370
    18
100
AcDbSpline
210
0.0
220
0.0
230
1.0
 70
     8
 71
     3
 72
    11
 73
     7
 74
     0
 42
0.0000000001
 43
0.0000000001
 40
0.0
 40
0.0
 40
0.0
 40
0.0
 40
1.0
 40
1.0
 40
1.0
 40
2.0
 40
2.0
 40
2.0
 40
2.0
 10
319.1024190263579
 20
-441.6242634347309
 30
0.0
 10
323.130062202832
 20
-442.4944493161619
 30
0.0
 10
326.427569581414
 20
-449.740453629558
 30
0.0
 10
326.427569581414
 20
-449.740453629558
 30
0.0
 10
326.427569581414
 20
-449.740453629558
 30
0.0
 10
326.538768787872
 20
-463.6178425817779
 30
0.0
 10
326.538768787872
 20
-463.6178425817779
 30
0.0
  0
SPLINE
  5
186
330
70
100
AcDbEntity
  8
图层 1
 62
   250
420
  2299925
370
    18
100
AcDbSpline
210
0.0
220
0.0
230
1.0
 70
     8
 71
     3
 72
     8
 73
     4
 74
     0
 42
0.0000000001
 43
0.0000000001
 40
0.0
 40
0.0
 40
0.0
 40
0.0
 40
1.0
 40
1.0
 40
1.0
 40
1.0
 10
238.3048553305389
 20
-376.8057731409617
 30
0.0
 10
238.3048553305389
 20
-376.8057731409617
 30
0.0
 10
250.3116004422518
 20
-397.0408950292585
 30
0.0
 10
250.3962840389349
 20
-403.2603480771776
 30
0.0
  0
SPLINE
  5
187
330
70
100
AcDbEntity
  8
图层 1
 62
   250
420
  2299925
370
    18
100
AcDbSpline
210
0.0
220
0.0
230
1.0
 70
     8
 71
     3
 72
     8
 73
     4
 74
     0
 42
0.0000000001
 43
0.0000000001
 40
0.0
 40
0.0
 40
0.0
 40
0.0
 40
1.0
 40
1.0
 40
1.0
 40
1.0
 10
240.232009796091
 20
-376.1925876291952
 30
0.0
 10
240.232009796091
 20
-376.1925876291952
 30
0.0
 10
249.7307284375202
 20
-390.4254110626816
 30
0.0
 10
253.5221673164106
 20
-401.2227760825481
 30
0.0
  0
SPLINE
  5
188
330
70
100
AcDbEntity
  8
图层 1
 62
   250
420
  2299925
370
    18
100
AcDbSpline
210
0.0
220
0.0
230
1.0
 70
     8
 71
     3
 72
    32
 73
    28
 74
     0
 42
0.0000000001
 43
0.0000000001
 40
0.0
 40
0.0
 40
0.0
 40
0.0
 40
1.0
 40
1.0
 40
1.0
 40
2.0
 40
2.0
 40
2.0
 40
3.0
 40
3.0
 40
3.0
 40
4.0
 40
4.0
 40
4.0
 40
5.0
 40
5.0
 40
5.0
 40
6.0
 40
6.0
 40
6.0
 40
7.0
 40
7.0
 40
7.0
 40
8.0
 40
8.0
 40
8.0
 40
9.0
 40
9.0
 40
9.0
 40
9.0
 10
221.3316627280756
 20
-385.0399785846848
 30
0.0
 10
221.3316627280756
 20
-385.0399785846848
 30
0.0
 10
226.7419285372262
 20
-380.4444580078134
 30
0.0
 10
226.7419285372262
 20
-380.4444580078134
 30
0.0
 10
226.7419285372262
 20
-380.4444580078134
 30
0.0
 10
227.5303099094972
 20
-382.7422182962491
 30
0.0
 10
227.5303099094972
 20
-382.7422182962491
 30
0.0
 10
227.5303099094972
 20
-382.7422182962491
 30
0.0
 10
227.9682995607591
 20
-385.6167205000484
 30
0.0
 10
227.9682995607591
 20
-385.6167205000484
 30
0.0
 10
227.9682995607591
 20
-385.6167205000484
 30
0.0
 10
224.6499811444173
 20
-387.4927206317507
 30
0.0
 10
224.6499811444173
 20
-387.4927206317507
 30
0.0
 10
224.6499811444173
 20
-387.4927206317507
 30
0.0
 10
224.6499811444173
 20
-388.2811020040226
 30
0.0
 10
224.6499811444173
 20
-388.2811020040226
 30
0.0
 10
224.6499811444173
 20
-388.2811020040226
 30
0.0
 10
231.4372650372079
 20
-389.1878912820248
 30
0.0
 10
231.1481481481478
 20
-391.7566252367306
 30
0.0
 10
230.8590312590877
 20
-394.3253591914363
 30
0.0
 10
225.5155575136923
 20
-391.7566252367306
 30
0.0
 10
225.5155575136923
 20
-391.7566252367306
 30
0.0
 10
225.5155575136923
 20
-391.7566252367306
 30
0.0
 10
223.8511968388984
 20
-391.7566252367306
 30
0.0
 10
223.8511968388984
 20
-391.7566252367306
 30
0.0
 10
223.8511968388984
 20
-391.7566252367306
 30
0.0
 10
223.9387947691503
 20
-392.8982847721554
 30
0.0
 10
223.9387947691503
 20
-392.8982847721554
 30
0.0
  0
SPLINE
  5
189
330
70
100
AcDbEntity
  8
图层 1
 62
   250
420
  2299925
370
    18
100
AcDbSpline
210
0.0
220
0.0
230
1.0
 70
     8
 71
     3
 72
    32
 73
    28
 74
     0
 42
0.0000000001
 43
0.0000000001
 40
0.0
 40
0.0
 40
0.0
 40
0.0
 40
1.0
 40
1.0
 40
1.0
 40
2.0
 40
2.0
 40
2.0
 40
3.0
 40
3.0
 40
3.0
 40
4.0
 40
4.0
 40
4.0
 40
5.0
 40
5.0
 40
5.0
 40
6.0
 40
6.0
 40
6.0
 40
7.0
 40
7.0
 40
7.0
 40
8.0
 40
8.0
 40
8.0
 40
9.0
 40
9.0
 40
9.0
 40
9.0
 10
225.1797869586862
 20
-398.7052557040542
 30
0.0
 10
225.1797869586862
 20
-398.7052557040542
 30
0.0
 10
225.6907533741978
 20
-394.9385447032028
 30
0.0
 10
225.6907533741978
 20
-394.9385447032028
 30
0.0
 10
225.6907533741978
 20
-394.9385447032028
 30
0.0
 10
231.1481481481478
 20
-394.9385447032028
 30
0.0
 10
231.1481481481478
 20
-394.9385447032028
 30
0.0
 10
231.1481481481478
 20
-394.9385447032028
 30
0.0
 10
231.559814701106
 20
-397.6540805410259
 30
0.0
 10
231.559814701106
 20
-397.6540805410259
 30
0.0
 10
231.559814701106
 20
-397.6540805410259
 30
0.0
 10
227.9682995607591
 20
-398.3137842046454
 30
0.0
 10
227.9682995607591
 20
-398.3137842046454
 30
0.0
 10
227.9682995607591
 20
-398.3137842046454
 30
0.0
 10
227.8807016305063
 20
-399.4285180716452
 30
0.0
 10
227.8807016305063
 20
-399.4285180716452
 30
0.0
 10
227.8807016305063
 20
-399.4285180716452
 30
0.0
 10
227.3551140489926
 20
-400.7200080998591
 30
0.0
 10
227.3551140489926
 20
-400.7200080998591
 30
0.0
 10
227.3551140489926
 20
-400.7200080998591
 30
0.0
 10
227.4427119792435
 20
-402.2091729141493
 30
0.0
 10
227.4427119792435
 20
-402.2091729141493
 30
0.0
 10
227.4427119792435
 20
-402.2091729141493
 30
0.0
 10
227.1799181884881
 20
-403.2603480771776
 30
0.0
 10
227.1799181884881
 20
-403.2603480771776
 30
0.0
 10
227.1799181884881
 20
-403.2603480771776
 30
0.0
 10
227.2675161187399
 20
-404.5743170309633
 30
0.0
 10
227.0923202582353
 20
-404.311523240206
 30
0.0
  0
SPLINE
  5
18A
330
70
100
AcDbEntity
  8
图层 1
 62
   250
420
  2299925
370
    18
100
AcDbSpline
210
0.0
220
0.0
230
1.0
 70
     8
 71
     3
 72
    14
 73
    10
 74
     0
 42
0.0000000001
 43
0.0000000001
 40
0.0
 40
0.0
 40
0.0
 40
0.0
 40
1.0
 40
1.0
 40
1.0
 40
2.0
 40
2.0
 40
2.0
 40
3.0
 40
3.0
 40
3.0
 40
3.0
 10
237.0784843070059
 20
-434.3576133167698
 30
0.0
 10
237.0784843070059
 20
-434.3576133167698
 30
0.0
 10
241.5488930834454
 20
-427.5596150829751
 30
0.0
 10
244.3505696847369
 20
-438.5358351667019
 30
0.0
 10
244.3505696847369
 20
-438.5358351667019
 30
0.0
 10
247.0646483557748
 20
-442.0548054158862
 30
0.0
 10
245.3126897507281
 20
-447.7522407835331
 30
0.0
 10
243.5607311456824
 20
-453.44967615118
 30
0.0
 10
241.4901208821484
 20
-445.7555290630625
 30
0.0
 10
241.4901208821484
 20
-445.7555290630625
 30
0.0
  0
LWPOLYLINE
  5
18B
330
70
100
AcDbEntity
  8
图层 1
 62
   250
420
  2299925
370
    18
100
AcDbPolyline
 90
        4
 70
     0
 43
0.0
 10
229.194670584292
 20
-375.6670000476824
 10
237.0784843070059
 20
-365.5932380686599
 10
241.4901208821484
 20
-364.5420629056316
 10
245.9017574572917
 20
-367.1700008132029
  0
SPLINE
  5
18C
330
70
100
AcDbEntity
  8
图层 1
 62
   250
420
  2299925
370
    35
100
AcDbSpline
210
0.0
220
0.0
230
1.0
 70
     8
 71
     3
 72
    32
 73
    28
 74
     0
 42
0.0000000001
 43
0.0000000001
 40
0.0
 40
0.0
 40
0.0
 40
0.0
 40
1.0
 40
1.0
 40
1.0
 40
2.0
 40
2.0
 40
2.0
 40
3.0
 40
3.0
 40
3.0
 40
4.0
 40
4.0
 40
4.0
 40
5.0
 40
5.0
 40
5.0
 40
6.0
 40
6.0
 40
6.0
 40
7.0
 40
7.0
 40
7.0
 40
8.0
 40
8.0
 40
8.0
 40
9.0
 40
9.0
 40
9.0
 40
9.0
 10
281.3231306715343
 20
-326.4769690662843
 30
0.0
 10
281.3231306715343
 20
-326.4769690662843
 30
0.0
 10
290.2504813522883
 20
-337.1065712079717
 30
0.0
 10
289.6123155995119
 20
-342.2118972301814
 30
0.0
 10
289.6123155995119
 20
-342.2118972301814
 30
0.0
 10
292.6268475313218
 20
-346.612497860976
 30
0.0
 10
286.3333384195957
 20
-347.071221515479
 30
0.0
 10
286.3333384195957
 20
-347.071221515479
 30
0.0
 10
282.4609561233492
 20
-347.1228014025692
 30
0.0
 10
282.4609561233492
 20
-347.1228014025692
 30
0.0
 10
282.4609561233492
 20
-347.1228014025692
 30
0.0
 10
271.1827472235409
 20
-359.223690630708
 30
0.0
 10
271.1827472235409
 20
-359.223690630708
 30
0.0
 10
271.1827472235409
 20
-359.223690630708
 30
0.0
 10
272.6296296296287
 20
-364.5420629056316
 30
0.0
 10
272.6296296296287
 20
-364.5420629056316
 30
0.0
 10
272.6296296296287
 20
-364.5420629056316
 30
0.0
 10
269.3786113901551
 20
-365.6113081653057
 30
0.0
 10
269.3786113901551
 20
-365.6113081653057
 30
0.0
 10
269.3786113901551
 20
-365.6113081653057
 30
0.0
 10
264.3381527217844
 20
-358.2784033948674
 30
0.0
 10
259.3193150005081
 20
-358.2222222222254
 30
0.0
 10
254.3004772792319
 20
-358.1660410495842
 30
0.0
 10
240.232009796091
 20
-363.6968109069767
 30
0.0
 10
240.232009796091
 20
-363.6968109069767
 30
0.0
 10
240.232009796091
 20
-363.6968109069767
 30
0.0
 10
235.7645461482371
 20
-359.5928602186332
 30
0.0
 10
235.7645461482371
 20
-359.5928602186332
 30
0.0
  0
SPLINE
  5
18D
330
70
100
AcDbEntity
  8
图层 1
 62
   250
420
  2299925
370
    35
100
AcDbSpline
210
0.0
220
0.0
230
1.0
 70
     9
 71
     3
 72
    17
 73
    13
 74
     0
 42
0.0000000001
 43
0.0000000001
 40
0.0
 40
0.0
 40
0.0
 40
0.0
 40
1.0
 40
1.0
 40
1.0
 40
2.0
 40
2.0
 40
2.0
 40
3.0
 40
3.0
 40
3.0
 40
4.0
 40
4.0
 40
4.0
 40
4.0
 10
275.3868312757204
 20
-364.5420629056316
 30
0.0
 10
267.14534923054
 20
-366.0087478434898
 30
0.0
 10
292.3779688078248
 20
-348.3397978155172
 30
0.0
 10
292.3779688078248
 20
-348.3397978155172
 30
0.0
 10
292.3779688078248
 20
-348.3397978155172
 30
0.0
 10
313.1106444326487
 20
-364.4556184977318
 30
0.0
 10
314.1247950716024
 20
-378.2222222222253
 30
0.0
 10
314.1247950716024
 20
-378.2222222222253
 30
0.0
 10
314.8203176807438
 20
-384.7991563878513
 30
0.0
 10
311.4697200553819
 20
-386.9049377441406
 30
0.0
 10
311.4697200553819
 20
-386.9049377441406
 30
0.0
 10
281.3950511612857
 20
-363.4728176459575
 30
0.0
 10
275.3868312757204
 20
-364.5420629056316
 30
0.0
  0
SPLINE
  5
18E
330
70
100
AcDbEntity
  8
图层 1
 62
   250
420
  2299925
370
    25
100
AcDbSpline
210
0.0
220
0.0
230
1.0
 70
     8
 71
     3
 72
     8
 73
     4
 74
     0
 42
0.0000000001
 43
0.0000000001
 40
0.0
 40
0.0
 40
0.0
 40
0.0
 40
1.0
 40
1.0
 40
1.0
 40
1.0
 10
311.0161015329304
 20
-384.8888854980469
 30
0.0
 10
311.0161015329304
 20
-384.8888854980469
 30
0.0
 10
291.5805811675919
 20
-363.4728176459575
 30
0.0
 10
275.3868312757204
 20
-364.5420629056316
 30
0.0
  0
LWPOLYLINE
  5
18F
330
70
100
AcDbEntity
  8
图层 1
 62
   250
420
  2299925
370
    25
100
AcDbPolyline
 90
        7
 70
     0
 43
0.0
 10
326.427569581414
 20
-374.2108661719003
 10
326.427569581414
 20
-360.2592163085938
 10
327.8094993928589
 20
-356.7407407407436
 10
327.8094993928589
 20
-345.2849081768782
 10
329.6666666666661
 20
-356.5555419921884
 10
328.0471181240391
 20
-360.4905586033774
 10
329.6666666666661
 20
-378.2222222222253
  0
SPLINE
  5
190
330
70
100
AcDbEntity
  8
图层 1
 62
   250
420
  2299925
370
    25
100
AcDbSpline
210
0.0
220
0.0
230
1.0
 70
     8
 71
     3
 72
    50
 73
    46
 74
     0
 42
0.0000000001
 43
0.0000000001
 40
0.0
 40
0.0
 40
0.0
 40
0.0
 40
1.0
 40
1.0
 40
1.0
 40
2.0
 40
2.0
 40
2.0
 40
3.0
 40
3.0
 40
3.0
 40
4.0
 40
4.0
 40
4.0
 40
5.0
 40
5.0
 40
5.0
 40
6.0
 40
6.0
 40
6.0
 40
7.0
 40
7.0
 40
7.0
 40
8.0
 40
8.0
 40
8.0
 40
9.0
 40
9.0
 40
9.0
 40
10.0
 40
10.0
 40
10.0
 40
11.0
 40
11.0
 40
11.0
 40
12.0
 40
12.0
 40
12.0
 40
13.0
 40
13.0
 40
13.0
 40
14.0
 40
14.0
 40
14.0
 40
15.0
 40
15.0
 40
15.0
 40
15.0
 10
333.2915232484193
 20
-385.6167205000484
 30
0.0
 10
333.2915232484193
 20
-385.6167205000484
 30
0.0
 10
333.2915232484193
 20
-378.2222222222253
 30
0.0
 10
333.2915232484193
 20
-378.2222222222253
 30
0.0
 10
333.2915232484193
 20
-378.2222222222253
 30
0.0
 10
333.2915232484193
 20
-374.6961011731419
 30
0.0
 10
333.2915232484193
 20
-374.6961011731419
 30
0.0
 10
333.2915232484193
 20
-374.6961011731419
 30
0.0
 10
336.6076954112032
 20
-364.5033168482378
 30
0.0
 10
336.6076954112032
 20
-364.5033168482378
 30
0.0
 10
336.6076954112032
 20
-364.5033168482378
 30
0.0
 10
336.6076954112032
 20
-373.6871493721192
 30
0.0
 10
336.6076954112032
 20
-373.6871493721192
 30
0.0
 10
336.6076954112032
 20
-373.6871493721192
 30
0.0
 10
338.1733782241536
 20
-376.8057731409617
 30
0.0
 10
338.1733782241536
 20
-376.8057731409617
 30
0.0
 10
338.1733782241536
 20
-376.8057731409617
 30
0.0
 10
336.2319675261533
 20
-380.4444580078134
 30
0.0
 10
336.2319675261533
 20
-380.4444580078134
 30
0.0
 10
336.2319675261533
 20
-380.4444580078134
 30
0.0
 10
335.7324507362864
 20
-386.9049377441406
 30
0.0
 10
335.7324507362864
 20
-386.9049377441406
 30
0.0
 10
335.7324507362864
 20
-386.9049377441406
 30
0.0
 10
337.2611156584662
 20
-389.1481323242187
 30
0.0
 10
337.2611156584662
 20
-389.1481323242187
 30
0.0
 10
337.2611156584662
 20
-389.1481323242187
 30
0.0
 10
335.0965095901993
 20
-391.7566252367306
 30
0.0
 10
335.0965095901993
 20
-391.7566252367306
 30
0.0
 10
335.0965095901993
 20
-391.7566252367306
 30
0.0
 10
336.3686937798048
 20
-393.5243532058148
 30
0.0
 10
337.458235809072
 20
-396.2669957612579
 30
0.0
 10
338.9346989700898
 20
-399.983613007932
 30
0.0
 10
340.0757658131443
 20
-405.4905220579221
 30
0.0
 10
337.2611156584662
 20
-410.8148148148184
 30
0.0
 10
332.3694210355116
 20
-420.0681190688682
 30
0.0
 10
337.2611156584662
 20
-409.9190484856853
 30
0.0
 10
337.2611156584662
 20
-409.9190484856853
 30
0.0
 10
337.2611156584662
 20
-409.9190484856853
 30
0.0
 10
338.251660465492
 20
-420.6095035451471
 30
0.0
 10
318.6118702195272
 20
-412.6808222736953
 30
0.0
 10
298.9720799735605
 20
-404.7521410022418
 30
0.0
 10
318.6118702195272
 20
-413.8655401963797
 30
0.0
 10
318.6118702195272
 20
-413.8655401963797
 30
0.0
 10
318.6118702195272
 20
-413.8655401963797
 30
0.0
 10
290.333949387662
 20
-387.7970510547448
 30
0.0
 10
290.333949387662
 20
-387.7970510547448
 30
0.0
  0
LWPOLYLINE
  5
191
330
70
100
AcDbEntity
  8
图层 1
 62
   250
420
  2299925
370
    25
100
AcDbPolyline
 90
        3
 70
     0
 43
0.0
 10
337.458235809072
 20
-396.2669957612579
 10
349.8611113034022
 20
-378.7777709960938
 10
357.8760070178523
 20
-392.4697875976562
  0
SPLINE
  5
192
330
70
100
AcDbEntity
  8
图层 1
 62
   250
420
  2299925
370
    25
100
AcDbSpline
210
0.0
220
0.0
230
1.0
 70
     8
 71
     3
 72
    11
 73
     7
 74
     0
 42
0.0000000001
 43
0.0000000001
 40
0.0
 40
0.0
 40
0.0
 40
0.0
 40
1.0
 40
1.0
 40
1.0
 40
2.0
 40
2.0
 40
2.0
 40
2.0
 10
399.8022689121899
 20
-338.6511134861939
 30
0.0
 10
399.8022689121899
 20
-338.6511134861939
 30
0.0
 10
393.2486423155115
 20
-346.8216217102108
 30
0.0
 10
393.9727926027463
 20
-355.2592163085937
 30
0.0
 10
393.9727926027463
 20
-355.2592163085937
 30
0.0
 10
407.0607703589285
 20
-359.2943412509994
 30
0.0
 10
404.2824073059273
 20
-370.5362575766503
 30
0.0
  0
SPLINE
  5
193
330
70
100
AcDbEntity
  8
图层 1
 62
   250
420
  2299925
370
    25
100
AcDbSpline
210
0.0
220
0.0
230
1.0
 70
     9
 71
     3
 72
    17
 73
    13
 74
     0
 42
0.0000000001
 43
0.0000000001
 40
0.0
 40
0.0
 40
0.0
 40
0.0
 40
1.0
 40
1.0
 40
1.0
 40
2.0
 40
2.0
 40
2.0
 40
3.0
 40
3.0
 40
3.0
 40
4.0
 40
4.0
 40
4.0
 40
4.0
 10
402.8886429346402
 20
-369.9294738769531
 30
0.0
 10
400.5354060689423
 20
-362.4664907944825
 30
0.0
 10
393.1580358881983
 20
-356.7407407407436
 30
0.0
 10
393.1580358881983
 20
-356.7407407407436
 30
0.0
 10
393.1580358881983
 20
-356.7407407407436
 30
0.0
 10
377.0801182436699
 20
-376.2083954341697
 30
0.0
 10
377.0605709867559
 20
-382.2904743909121
 30
0.0
 10
377.0605709867559
 20
-382.2904743909121
 30
0.0
 10
375.4157455034528
 20
-387.2715614134113
 30
0.0
 10
382.2909592680208
 20
-390.0556375152492
 30
0.0
 10
382.2909592680208
 20
-390.0556375152492
 30
0.0
 10
403.8477977811708
 20
-372.9713080830488
 30
0.0
 10
402.8886429346402
 20
-369.9294738769531
 30
0.0
  0
LWPOLYLINE
  5
194
330
70
100
AcDbEntity
  8
图层 1
 62
   250
420
  2299925
370
    25
100
AcDbPolyline
 90
        3
 70
     0
 43
0.0
 10
400.3251429225602
 20
-392.4697875976562
 10
407.9436889460303
 20
-400.6264615839445
 10
402.1363959748996
 20
-412.6808222736953
  0
LWPOLYLINE
  5
195
330
70
100
AcDbEntity
  8
图层 1
 62
   250
420
  2299925
370
    25
100
AcDbPolyline
 90
        4
 70
     0
 43
0.0
 10
392.704133052328
 20
-397.4814814814854
 10
396.3525040591903
 20
-399.4285180716452
 10
387.1011816074133
 20
-407.7314727982911
 10
381.3557530067574
 20
-415.2613187033693
  0
LINE
  5
196
330
70
100
AcDbEntity
  8
图层 1
 62
   250
420
  2299925
370
    25
100
AcDbLine
 10
387.1011816074133
 20
-402.5753049356754
 30
0.0
 11
379.4368769571029
 21
-415.2701900338579
 31
0.0
  0
LINE
  5
197
330
70
100
AcDbEntity
  8
图层 1
 62
   250
420
  2299925
370
    25
100
AcDbLine
 10
397.8148148148139
 20
-405.5271336279329
 30
0.0
 11
394.4009574948413
 21
-413.4454822947327
 31
0.0
  0
LWPOLYLINE
  5
198
330
70
100
AcDbEntity
  8
图层 1
 62
   250
420
  2299925
370
    25
100
AcDbPolyline
 90
        3
 70
     0
 43
0.0
 10
369.5000712470774
 20
-415.6079581822614
 10
374.1903011949907
 20
-419.3333333333357
 10
375.2691906547807
 20
-414.3141156458287
  0
LINE
  5
199
330
70
100
AcDbEntity
  8
图层 1
 62
   250
420
  2299925
370
    25
100
AcDbLine
 10
348.1851851851843
 20
-435.1666598849842
 30
0.0
 11
337.458235809072
 21
-500.68092983323
 31
0.0
  0
LWPOLYLINE
  5
19A
330
70
100
AcDbEntity
  8
图层 1
 62
   250
420
  2299925
370
    25
100
AcDbPolyline
 90
        8
 70
     0
 43
0.0
 10
353.377495783976
 20
-462.4745973559111
 10
350.798158820091
 20
-460.9467442162476
 10
348.1851851851843
 20
-466.0479814825594
 10
348.1851851851843
 20
-470.1851545160134
 10
341.0980828677075
 20
-484.6807714204914
 10
351.6244703895827
 20
-470.1851545160134
 10
351.6244703895827
 20
-467.2962962962992
 10
353.377495783976
 20
-465.8817865093278
  0
SPLINE
  5
19B
330
70
100
AcDbEntity
  8
图层 1
 62
   250
420
  2299925
370
    25
100
AcDbSpline
210
0.0
220
0.0
230
1.0
 70
     8
 71
     3
 72
     8
 73
     4
 74
     0
 42
0.0000000001
 43
0.0000000001
 40
0.0
 40
0.0
 40
0.0
 40
0.0
 40
1.0
 40
1.0
 40
1.0
 40
1.0
 10
379.3644901104235
 20
-499.1048577791771
 30
0.0
 10
379.3644901104235
 20
-499.1048577791771
 30
0.0
 10
375.2721430126967
 20
-491.881783935898
 30
0.0
 10
373.478491298325
 20
-494.5103497216059
 30
0.0
  0
SPLINE
  5
19C
330
70
100
AcDbEntity
  8
图层 1
 62
   250
420
  2299925
370
    35
100
AcDbSpline
210
0.0
220
0.0
230
1.0
 70
     8
 71
     3
 72
    11
 73
     7
 74
     0
 42
0.0000000001
 43
0.0000000001
 40
0.0
 40
0.0
 40
0.0
 40
0.0
 40
1.0
 40
1.0
 40
1.0
 40
2.0
 40
2.0
 40
2.0
 40
2.0
 10
381.3556960309597
 20
-495.6594758689389
 30
0.0
 10
381.3556960309597
 20
-495.6594758689389
 30
0.0
 10
383.1085388009051
 20
-492.5925664234164
 30
0.0
 10
377.0605709867559
 20
-488.2274064033226
 30
0.0
 10
377.0605709867559
 20
-488.2274064033226
 30
0.0
 10
380.159629370004
 20
-484.4245345378367
 30
0.0
 10
382.4444444444434
 20
-494.5103497216059
 30
0.0
  0
SPLINE
  5
19D
330
70
100
AcDbEntity
  8
图层 1
 62
   250
420
  2299925
370
    18
100
AcDbSpline
210
0.0
220
0.0
230
1.0
 70
     8
 71
     3
 72
    23
 73
    19
 74
     0
 42
0.0000000001
 43
0.0000000001
 40
0.0
 40
0.0
 40
0.0
 40
0.0
 40
1.0
 40
1.0
 40
1.0
 40
2.0
 40
2.0
 40
2.0
 40
3.0
 40
3.0
 40
3.0
 40
4.0
 40
4.0
 40
4.0
 40
5.0
 40
5.0
 40
5.0
 40
6.0
 40
6.0
 40
6.0
 40
6.0
 10
237.5482140207914
 20
-376.8057731409617
 30
0.0
 10
237.5482140207914
 20
-376.8057731409617
 30
0.0
 10
233.6710272845175
 20
-376.8057731409617
 30
0.0
 10
233.6710272845175
 20
-376.8057731409617
 30
0.0
 10
233.6710272845175
 20
-376.8057731409617
 30
0.0
 10
232.5488160831755
 20
-383.3770057561778
 30
0.0
 10
232.5488160831755
 20
-383.3770057561778
 30
0.0
 10
232.5488160831755
 20
-383.3770057561778
 30
0.0
 10
237.0104992107899
 20
-398.7763045295796
 30
0.0
 10
244.3505696847369
 20
-404.346272832373
 30
0.0
 10
244.3505696847369
 20
-404.346272832373
 30
0.0
 10
242.2102726578651
 20
-407.8603902341601
 30
0.0
 10
248.3789587823849
 20
-405.5271336279329
 30
0.0
 10
254.5476449069047
 20
-403.1938770217057
 30
0.0
 10
248.3789587823849
 20
-406.3714000924274
 30
0.0
 10
248.3789587823849
 20
-406.3714000924274
 30
0.0
 10
248.3789587823849
 20
-406.3714000924274
 30
0.0
 10
250.0463766527073
 20
-402.7216414407194
 30
0.0
 10
251.1205970599503
 20
-399.4285180716452
 30
0.0
  0
SPLINE
  5
19E
330
70
100
AcDbEntity
  8
图层 1
 62
   250
420
  2299925
370
    18
100
AcDbSpline
210
0.0
220
0.0
230
1.0
 70
     8
 71
     3
 72
    35
 73
    31
 74
     0
 42
0.0000000001
 43
0.0000000001
 40
0.0
 40
0.0
 40
0.0
 40
0.0
 40
1.0
 40
1.0
 40
1.0
 40
2.0
 40
2.0
 40
2.0
 40
3.0
 40
3.0
 40
3.0
 40
4.0
 40
4.0
 40
4.0
 40
5.0
 40
5.0
 40
5.0
 40
6.0
 40
6.0
 40
6.0
 40
7.0
 40
7.0
 40
7.0
 40
8.0
 40
8.0
 40
8.0
 40
9.0
 40
9.0
 40
9.0
 40
10.0
 40
10.0
 40
10.0
 40
10.0
 10
373.8826460350738
 20
-318.2222222222254
 30
0.0
 10
373.8826460350738
 20
-318.2222222222254
 30
0.0
 10
371.0126031726068
 20
-324.0965116298121
 30
0.0
 10
371.0126031726068
 20
-324.0965116298121
 30
0.0
 10
371.0126031726068
 20
-324.0965116298121
 30
0.0
 10
371.0126031726068
 20
-326.4769690662843
 30
0.0
 10
371.0126031726068
 20
-326.4769690662843
 30
0.0
 10
371.0126031726068
 20
-326.4769690662843
 30
0.0
 10
361.6012934137616
 20
-335.6739850145741
 30
0.0
 10
361.6012934137616
 20
-335.6739850145741
 30
0.0
 10
361.6012934137616
 20
-335.6739850145741
 30
0.0
 10
372.3846309509281
 20
-329.8574415863622
 30
0.0
 10
372.3846309509281
 20
-329.8574415863622
 30
0.0
 10
372.3846309509281
 20
-329.8574415863622
 30
0.0
 10
373.5620754189276
 20
-326.4769690662843
 30
0.0
 10
373.5620754189276
 20
-326.4769690662843
 30
0.0
 10
373.5620754189276
 20
-326.4769690662843
 30
0.0
 10
379.7525077155988
 20
-326.4769690662843
 30
0.0
 10
379.7525077155988
 20
-326.4769690662843
 30
0.0
 10
379.7525077155988
 20
-326.4769690662843
 30
0.0
 10
380.5919720342881
 20
-329.8574415863622
 30
0.0
 10
380.5919720342881
 20
-329.8574415863622
 30
0.0
 10
380.5919720342881
 20
-329.8574415863622
 30
0.0
 10
386.7407987992192
 20
-331.2459345892557
 30
0.0
 10
386.7407987992192
 20
-331.2459345892557
 30
0.0
 10
386.7407987992192
 20
-331.2459345892557
 30
0.0
 10
389.1268438084317
 20
-331.9368174190267
 30
0.0
 10
388.7247672865997
 20
-334.4577039615742
 30
0.0
 10
388.7247672865997
 20
-334.4577039615742
 30
0.0
 10
391.8519319243332
 20
-336.0360281344583
 30
0.0
 10
391.8519319243332
 20
-336.0360281344583
 30
0.0
  0
LWPOLYLINE
  5
19F
330
70
100
AcDbEntity
  8
图层 1
 62
   250
420
  2299925
370
    18
100
AcDbPolyline
 90
        7
 70
     0
 43
0.0
 10
386.8688149107839
 20
-389.3791211062289
 10
391.1796955129885
 20
-386.6713713899844
 10
391.1796955129885
 20
-384.1481481481515
 10
393.1580358881983
 20
-384.8888854980469
 10
393.9169151924271
 20
-387.5223833786758
 10
391.8519319243332
 20
-387.5223833786758
 10
387.1011816074133
 20
-390.0556375152492
  0
SPLINE
  5
1A0
330
70
100
AcDbEntity
  8
图层 1
 62
   250
420
  2299925
370
    18
100
AcDbSpline
210
0.0
220
0.0
230
1.0
 70
     8
 71
     3
 72
    17
 73
    13
 74
     0
 42
0.0000000001
 43
0.0000000001
 40
0.0
 40
0.0
 40
0.0
 40
0.0
 40
1.0
 40
1.0
 40
1.0
 40
2.0
 40
2.0
 40
2.0
 40
3.0
 40
3.0
 40
3.0
 40
4.0
 40
4.0
 40
4.0
 40
4.0
 10
391.8519319243332
 20
-356.7407407407436
 30
0.0
 10
391.8519319243332
 20
-356.7407407407436
 30
0.0
 10
388.8541285329738
 20
-355.1289736104645
 30
0.0
 10
388.8541285329738
 20
-355.1289736104645
 30
0.0
 10
388.8541285329738
 20
-355.1289736104645
 30
0.0
 10
373.0864838141915
 20
-376.0134812030992
 30
0.0
 10
373.5620754189276
 20
-380.4444580078134
 30
0.0
 10
374.0376670236638
 20
-384.8754348125276
 30
0.0
 10
373.5620754189276
 20
-381.185185185188
 30
0.0
 10
373.5620754189276
 20
-381.185185185188
 30
0.0
 10
373.5620754189276
 20
-381.185185185188
 30
0.0
 10
372.3527562193685
 20
-385.3133874772457
 30
0.0
 10
377.0605709867559
 20
-388.7076818558717
 30
0.0
  0
SPLINE
  5
1A1
330
70
100
AcDbEntity
  8
图层 1
 62
   250
420
  2299925
370
    18
100
AcDbSpline
210
0.0
220
0.0
230
1.0
 70
     8
 71
     3
 72
     8
 73
     4
 74
     0
 42
0.0000000001
 43
0.0000000001
 40
0.0
 40
0.0
 40
0.0
 40
0.0
 40
1.0
 40
1.0
 40
1.0
 40
1.0
 10
396.1078861548267
 20
-346.0441386157954
 30
0.0
 10
396.1078861548267
 20
-346.0441386157954
 30
0.0
 10
399.3870441619419
 20
-343.8497268374204
 30
0.0
 10
400.3251429225602
 20
-346.0441386157954
 30
0.0
  0
SPLINE
  5
1A2
330
70
100
AcDbEntity
  8
图层 1
 62
   250
420
  2299925
370
    18
100
AcDbSpline
210
0.0
220
0.0
230
1.0
 70
     8
 71
     3
 72
     8
 73
     4
 74
     0
 42
0.0000000001
 43
0.0000000001
 40
0.0
 40
0.0
 40
0.0
 40
0.0
 40
1.0
 40
1.0
 40
1.0
 40
1.0
 10
394.4009574948413
 20
-349.8474713668629
 30
0.0
 10
394.4009574948413
 20
-349.8474713668629
 30
0.0
 10
400.2066753492399
 20
-347.0621366743126
 30
0.0
 10
402.9197268530842
 20
-352.4400279650809
 30
0.0
  0
SPLINE
  5
1A3
330
70
100
AcDbEntity
  8
图层 1
 62
   250
420
  2299925
370
    18
100
AcDbSpline
210
0.0
220
0.0
230
1.0
 70
     8
 71
     3
 72
     8
 73
     4
 74
     0
 42
0.0000000001
 43
0.0000000001
 40
0.0
 40
0.0
 40
0.0
 40
0.0
 40
1.0
 40
1.0
 40
1.0
 40
1.0
 10
394.4009574948413
 20
-350.6478217070371
 30
0.0
 10
394.4009574948413
 20
-350.6478217070371
 30
0.0
 10
401.0469708634227
 20
-348.9107868055143
 30
0.0
 10
402.9197268530842
 20
-355.1289736104645
 30
0.0
  0
SPLINE
  5
1A4
330
70
100
AcDbEntity
  8
图层 1
 62
   250
420
  2299925
370
    18
100
AcDbSpline
210
0.0
220
0.0
230
1.0
 70
     8
 71
     3
 72
    20
 73
    16
 74
     0
 42
0.0000000001
 43
0.0000000001
 40
0.0
 40
0.0
 40
0.0
 40
0.0
 40
1.0
 40
1.0
 40
1.0
 40
2.0
 40
2.0
 40
2.0
 40
3.0
 40
3.0
 40
3.0
 40
4.0
 40
4.0
 40
4.0
 40
5.0
 40
5.0
 40
5.0
 40
5.0
 10
387.1011816074133
 20
-240.2734057908692
 30
0.0
 10
387.1011816074133
 20
-240.2734057908692
 30
0.0
 10
389.4864926965492
 20
-248.6057005791108
 30
0.0
 10
392.8851575575809
 20
-249.9379832346176
 30
0.0
 10
392.8851575575809
 20
-249.9379832346176
 30
0.0
 10
389.8682206230715
 20
-252.3435284778188
 30
0.0
 10
390.3928650516064
 20
-255.3844391429529
 30
0.0
 10
390.3928650516064
 20
-255.3844391429529
 30
0.0
 10
392.8851575575809
 20
-263.279333261431
 30
0.0
 10
397.1782079083587
 20
-262.6411125142495
 30
0.0
 10
397.1782079083587
 20
-262.6411125142495
 30
0.0
 10
399.7173909003577
 20
-263.8727037512063
 30
0.0
 10
402.9197268530842
 20
-260.6123954857994
 30
0.0
 10
402.9197268530842
 20
-260.6123954857994
 30
0.0
 10
402.2524769723895
 20
-266.2254986502858
 30
0.0
 10
407.9436889460303
 20
-267.9600528145811
 30
0.0
  0
SPLINE
  5
1A5
330
70
100
AcDbEntity
  8
图层 1
 62
   250
420
  2299925
370
    18
100
AcDbSpline
210
0.0
220
0.0
230
1.0
 70
     8
 71
     3
 72
    20
 73
    16
 74
     0
 42
0.0000000001
 43
0.0000000001
 40
0.0
 40
0.0
 40
0.0
 40
0.0
 40
1.0
 40
1.0
 40
1.0
 40
2.0
 40
2.0
 40
2.0
 40
3.0
 40
3.0
 40
3.0
 40
4.0
 40
4.0
 40
4.0
 40
5.0
 40
5.0
 40
5.0
 40
5.0
 10
420.1257485912846
 20
-274.2257249458771
 30
0.0
 10
420.1257485912846
 20
-274.2257249458771
 30
0.0
 10
419.9711609532823
 20
-281.3216183455643
 30
0.0
 10
426.7307098726487
 20
-284.8991603045451
 30
0.0
 10
426.7307098726487
 20
-284.8991603045451
 30
0.0
 10
420.4322306417343
 20
-286.1512999901879
 30
0.0
 10
420.968861935582
 20
-290.2654732430164
 30
0.0
 10
420.968861935582
 20
-290.2654732430164
 30
0.0
 10
421.8632474253263
 20
-296.5196079121852
 30
0.0
 10
427.587314559696
 20
-298.2222222222254
 30
0.0
 10
427.587314559696
 20
-298.2222222222254
 30
0.0
 10
432.2381191063723
 20
-299.935849671072
 30
0.0
 10
433.8480129879135
 20
-295.1901000060189
 30
0.0
 10
433.8480129879135
 20
-295.1901000060189
 30
0.0
 10
437.4994528081534
 20
-298.4197016825747
 30
0.0
 10
439.2143259263848
 20
-298.5235545585147
 30
0.0
  0
SPLINE
  5
1A6
330
70
100
AcDbEntity
  8
图层 1
 62
   250
420
  2299925
370
    18
100
AcDbSpline
210
0.0
220
0.0
230
1.0
 70
     8
 71
     3
 72
    20
 73
    16
 74
     0
 42
0.0000000001
 43
0.0000000001
 40
0.0
 40
0.0
 40
0.0
 40
0.0
 40
1.0
 40
1.0
 40
1.0
 40
2.0
 40
2.0
 40
2.0
 40
3.0
 40
3.0
 40
3.0
 40
4.0
 40
4.0
 40
4.0
 40
5.0
 40
5.0
 40
5.0
 40
5.0
 10
437.1010802430173
 20
-313.2263241467935
 30
0.0
 10
437.1010802430173
 20
-313.2263241467935
 30
0.0
 10
437.0678007509978
 20
-319.0276928144403
 30
0.0
 10
441.1819740038245
 20
-322.6237313726078
 30
0.0
 10
441.1819740038245
 20
-322.6237313726078
 30
0.0
 10
433.0206633175512
 20
-324.8186926628268
 30
0.0
 10
434.8653549363243
 20
-327.1291251783423
 30
0.0
 10
434.8653549363243
 20
-327.1291251783423
 30
0.0
 10
433.1519691052235
 20
-332.6557246532284
 30
0.0
 10
440.476197866581
 20
-333.6413590938037
 30
0.0
 10
440.476197866581
 20
-333.6413590938037
 30
0.0
 10
446.6077157924355
 20
-334.4481164364306
 30
0.0
 10
446.9357555632632
 20
-331.9438370651442
 30
0.0
 10
446.9357555632632
 20
-331.9438370651442
 30
0.0
 10
448.512947073701
 20
-333.7652272082851
 30
0.0
 10
448.512947073701
 20
-333.7652272082851
 30
0.0
  0
LWPOLYLINE
  5
1A7
330
70
100
AcDbEntity
  8
图层 1
 62
   250
420
  2299925
370
    18
100
AcDbPolyline
 90
        3
 70
     0
 43
0.0
 10
360.6973784906586
 20
-457.9107280241369
 10
379.4368769571029
 20
-452.9648011294757
 10
396.1078861548267
 20
-441.0649329639964
  0
LWPOLYLINE
  5
1A8
330
70
100
AcDbEntity
  8
图层 1
 62
   250
420
  2299925
370
    18
100
AcDbPolyline
 90
        1
 70
     0
 43
0.0
 10
380.5426377990971
 20
-466.2805376248725
  0
LINE
  5
1A9
330
70
100
AcDbEntity
  8
图层 1
 62
   250
420
  2299925
370
    18
100
AcDbLine
 10
384.8009706600369
 20
-477.57763671875
 30
0.0
 11
387.1011816074133
 21
-455.3690346499807
 31
0.0
  0
LWPOLYLINE
  5
1AA
330
70
100
AcDbEntity
  8
图层 1
 62
   250
420
  2299925
370
    18
100
AcDbPolyline
 90
        1
 70
     0
 43
0.0
 10
355.3835101819168
 20
-471.4363350710882
  0
SPLINE
  5
1AB
330
70
100
AcDbEntity
  8
图层 1
 62
   250
420
  2299925
370
    35
100
AcDbSpline
210
0.0
220
0.0
230
1.0
 70
     8
 71
     3
 72
    17
 73
    13
 74
     0
 42
0.0000000001
 43
0.0000000001
 40
0.0
 40
0.0
 40
0.0
 40
0.0
 40
1.0
 40
1.0
 40
1.0
 40
2.0
 40
2.0
 40
2.0
 40
3.0
 40
3.0
 40
3.0
 40
4.0
 40
4.0
 40
4.0
 40
4.0
 10
384.8635258315771
 20
-479.8824566920575
 30
0.0
 10
384.8635258315771
 20
-479.8824566920575
 30
0.0
 10
382.2909592680208
 20
-479.3212956744537
 30
0.0
 10
382.2909592680208
 20
-479.3212956744537
 30
0.0
 10
382.2909592680208
 20
-479.3212956744537
 30
0.0
 10
385.4294303423321
 20
-477.8170866503951
 30
0.0
 10
387.0049148198923
 20
-482.7571654884032
 30
0.0
 10
387.0049148198923
 20
-482.7571654884032
 30
0.0
 10
377.0605709867559
 20
-508.385597541901
 30
0.0
 10
377.0605709867559
 20
-508.385597541901
 30
0.0
 10
377.0605709867559
 20
-508.385597541901
 30
0.0
 10
392.704133052328
 20
-468.0692152647424
 30
0.0
 10
392.704133052328
 20
-468.0692152647424
 30
0.0
  0
LWPOLYLINE
  5
1AC
330
70
100
AcDbEntity
  8
图层 1
 62
   250
420
  2299925
370
    35
100
AcDbPolyline
 90
        3
 70
     0
 43
0.0
 10
372.3846309509281
 20
-487.524556057715
 10
369.5000712470774
 20
-502.0450476027454
 10
360.6973784906586
 20
-496.5196865685502
  0
LINE
  5
1AD
330
70
100
AcDbEntity
  8
图层 1
 62
   250
420
  2299925
370
    35
100
AcDbLine
 10
366.5410047207934
 20
-505.6296296296332
 30
0.0
 11
366.5410047207934
 21
-500.187671532225
 31
0.0
  0
LINE
  5
1AE
330
70
100
AcDbEntity
  8
图层 1
 62
   250
420
  2299925
370
    35
100
AcDbLine
 10
370.5729486241998
 20
-508.385597541901
 30
0.0
 11
372.3846309509281
 21
-504.2194604249398
 31
0.0
  0
LWPOLYLINE
  5
1AF
330
70
100
AcDbEntity
  8
图层 1
 62
   250
420
  2299925
370
    35
100
AcDbPolyline
 90
        9
 70
     0
 43
0.0
 10
372.3846309509281
 20
-502.1138266868401
 10
370.4938127368332
 20
-500.68092983323
 10
373.4227802788755
 20
-500.187671532225
 10
371.4787897875649
 20
-498.644569912245
 10
374.1903011949907
 20
-497.9245488422239
 10
370.5977085921386
 20
-496.5196865685502
 10
375.2691906547807
 20
-496.5196865685502
 10
371.4787897875649
 20
-494.7848018302302
 10
375.2691906547807
 20
-495.2660360637346
  0
LWPOLYLINE
  5
1B0
330
70
100
AcDbEntity
  8
图层 1
 62
   250
420
  2299925
370
    70
100
AcDbPolyline
 90
        4
 70
     0
 43
0.0
 10
359.1260770311546
 20
-427.234508525411
 10
355.3835101819168
 20
-437.7344062567681
 10
357.074074074073
 20
-464.7399291992187
 10
360.6973784906586
 20
-456.1644843088706
  0
LINE
  5
1B1
330
70
100
AcDbEntity
  8
图层 1
 62
   250
420
  2299925
370
    70
100
AcDbLine
 10
361.36566412924
 20
-429.918063984056
 30
0.0
 11
355.7925704098543
 21
-436.5867739679324
 31
0.0
  0
LINE
  5
1B2
330
70
100
AcDbEntity
  8
图层 1
 62
   250
420
  2299925
370
    70
100
AcDbLine
 10
360.6973784906586
 20
-428.7672267650596
 30
0.0
 11
355.7925704098543
 21
-437.3093374821419
 31
0.0
  0
LWPOLYLINE
  5
1B3
330
70
100
AcDbEntity
  8
图层 1
 62
   250
420
  2299925
370
    70
100
AcDbPolyline
 90
        7
 70
     0
 43
0.0
 10
358.5791172695463
 20
-433.777777777781
 10
356.782504492985
 20
-450.0250308027935
 10
356.782504492985
 20
-435.1666598849842
 10
359.1119004878929
 20
-426.502189221981
 10
366.5410047207934
 20
-419.3333333333357
 10
376.8175768753354
 20
-410.082079851385
 10
388.7247672865997
 20
-400.7569264126068
  0
ENDSEC
  0
SECTION
  2
OBJECTS
  0
DICTIONARY
  5
C
330
0
100
AcDbDictionary
281
     1
  3
ACAD_COLOR
350
63
  3
ACAD_DETAILVIEWSTYLE
350
6A
  3
ACAD_GROUP
350
D
  3
ACAD_LAYOUT
350
62
  3
ACAD_MATERIAL
350
10
  3
ACAD_MLEADERSTYLE
350
66
  3
ACAD_MLINESTYLE
350
5F
  3
ACAD_PLOTSETTINGS
350
61
  3
ACAD_PLOTSTYLENAME
350
E
  3
ACAD_SCALELIST
350
42
  3
ACAD_SECTIONVIEWSTYLE
350
68
  3
ACAD_TABLESTYLE
350
64
  3
ACAD_VISUALSTYLE
350
29
  3
ACDB_RECOMPOSE_DATA
350
1BC
  3
AcDbVariableDictionary
350
1B4
  0
DICTIONARY
  5
63
102
{ACAD_REACTORS
330
C
102
}
330
C
100
AcDbDictionary
281
     1
  0
DICTIONARY
  5
6A
102
{ACAD_REACTORS
330
C
102
}
330
C
100
AcDbDictionary
281
     1
  3
Imperial24
350
6B
  0
DICTIONARY
  5
D
102
{ACAD_REACTORS
330
C
102
}
330
C
100
AcDbDictionary
281
     1
  0
DICTIONARY
  5
62
102
{ACAD_REACTORS
330
C
102
}
330
C
100
AcDbDictionary
281
     1
  3
Layout1
350
6F
  3
Layout2
350
77
  3
Model
350
73
  0
DICTIONARY
  5
10
102
{ACAD_REACTORS
330
C
102
}
330
C
100
AcDbDictionary
281
     1
  3
ByBlock
350
19
  3
ByLayer
350
11
  3
Global
350
21
  0
DICTIONARY
  5
66
102
{ACAD_REACTORS
330
C
102
}
330
C
100
AcDbDictionary
281
     1
  3
Standard
350
67
  0
DICTIONARY
  5
5F
102
{ACAD_REACTORS
330
C
102
}
330
C
100
AcDbDictionary
281
     1
  3
Standard
350
60
  0
DICTIONARY
  5
61
102
{ACAD_REACTORS
330
C
102
}
330
C
100
AcDbDictionary
281
     1
  0
ACDBDICTIONARYWDFLT
  5
E
102
{ACAD_REACTORS
330
C
102
}
330
C
100
AcDbDictionary
281
     1
  3
Normal
350
F
100
AcDbDictionaryWithDefault
340
F
  0
DICTIONARY
  5
42
102
{ACAD_REACTORS
330
C
102
}
330
C
100
AcDbDictionary
281
     1
  3
A0
350
43
  3
A1
350
44
  3
A2
350
45
  3
A3
350
46
  3
A4
350
47
  3
A5
350
48
  3
A6
350
49
  3
A7
350
4A
  3
A8
350
4B
  3
A9
350
4C
  3
B0
350
4D
  3
B1
350
4E
  3
B2
350
4F
  3
B3
350
50
  3
B4
350
51
  3
B5
350
52
  3
B6
350
53
  0
DICTIONARY
  5
68
102
{ACAD_REACTORS
330
C
102
}
330
C
100
AcDbDictionary
281
     1
  3
Imperial24
350
69
  0
DICTIONARY
  5
64
102
{ACAD_REACTORS
330
C
102
}
330
C
100
AcDbDictionary
281
     1
  3
Standard
350
65
  0
DICTIONARY
  5
29
102
{ACAD_REACTORS
330
C
102
}
330
C
100
AcDbDictionary
281
     1
  3
2dWireframe
350
2F
  3
Basic
350
2E
  3
Brighten
350
35
  3
ColorChange
350
39
  3
Conceptual
350
32
  3
Dim
350
34
  3
EdgeColorOff
350
41
  3
Facepattern
350
38
  3
Flat
350
2A
  3
FlatWithEdges
350
2B
  3
Gouraud
350
2C
  3
GouraudWithEdges
350
2D
  3
Hidden
350
31
  3
JitterOff
350
3F
  3
Linepattern
350
37
  3
OverhangOff
350
40
  3
Realistic
350
33
  3
Shaded
350
3E
  3
Shaded with edges
350
3D
  3
Shades of Gray
350
3A
  3
Sketchy
350
3B
  3
Thicken
350
36
  3
Wireframe
350
30
  3
X-Ray
350
3C
  0
XRECORD
  5
1BC
102
{ACAD_REACTORS
330
C
102
}
330
C
100
AcDbXrecord
280
     1
 90
        1
330
65
  0
DICTIONARY
  5
1B4
102
{ACAD_REACTORS
330
C
102
}
330
C
100
AcDbDictionary
281
     1
  3
CANNOSCALE
350
1B9
  3
CMLEADERSTYLE
350
1B6
  3
CTABLESTYLE
350
1B5
  3
CVIEWDETAILSTYLE
350
1B7
  3
CVIEWSECTIONSTYLE
350
1B8
  0
ACDBDETAILVIEWSTYLE
  5
6B
102
{ACAD_REACTORS
330
6A
102
}
330
6A
100
AcDbModelDocViewStyle
 70
     0
  3
Imperial24
290
     1
300
Imperial24
 90
        0
100
AcDbDetailViewStyle
 70
     0
 71
     0
 90
        3
 71
     1
340
55
 62
   256
 40
0.24
340
0
 62
   256
 40
0.24
300

 40
0.36
280
     3
 71
     2
340
5D
 90
       25
 62
   256
 71
     3
340
55
 62
   256
 40
0.24
 90
        1
 40
0.75
 90
        1
300
%<\AcVar ViewType \f "%tc1">% %<\AcVar ViewDetailId>%\PSCALE %<\AcVar ViewScale \f "%sn">%
 71
     4
340
5D
 90
       25
 62
   256
340
5D
 90
       25
 62
   256
280
     0
  0
LAYOUT
  5
6F
102
{ACAD_REACTORS
330
62
102
}
330
62
100
AcDbPlotSettings
  1

  2

  4

  6

 40
0.0
 41
0.0
 42
0.0
 43
0.0
 44
0.0
 45
0.0
 46
0.0
 47
0.0
 48
0.0
 49
0.0
140
0.0
141
0.0
142
1.0
143
1.0
 70
   688
 72
     0
 73
     0
 74
     5
  7

 75
    16
147
1.0
 76
     0
 77
     2
 78
   300
148
0.0
149
0.0
100
AcDbLayout
  1
Layout1
 70
     1
 71
     1
 10
0.0
 20
0.0
 11
12.0
 21
9.0
 12
0.0
 22
0.0
 32
0.0
 14
0.0
 24
0.0
 34
0.0
 15
0.0
 25
0.0
 35
0.0
146
0.0
 13
0.0
 23
0.0
 33
0.0
 16
1.0
 26
0.0
 36
0.0
 17
0.0
 27
1.0
 37
0.0
 76
     0
330
6C
  0
LAYOUT
  5
77
102
{ACAD_REACTORS
330
62
102
}
330
62
100
AcDbPlotSettings
  1

  2

  4

  6

 40
0.0
 41
0.0
 42
0.0
 43
0.0
 44
0.0
 45
0.0
 46
0.0
 47
0.0
 48
0.0
 49
0.0
140
0.0
141
0.0
142
1.0
143
1.0
 70
   688
 72
     0
 73
     0
 74
     5
  7

 75
    16
147
1.0
 76
     0
 77
     2
 78
   300
148
0.0
149
0.0
100
AcDbLayout
  1
Layout2
 70
     1
 71
     2
 10
0.0
 20
0.0
 11
12.0
 21
9.0
 12
0.0
 22
0.0
 32
0.0
 14
0.0
 24
0.0
 34
0.0
 15
0.0
 25
0.0
 35
0.0
146
0.0
 13
0.0
 23
0.0
 33
0.0
 16
1.0
 26
0.0
 36
0.0
 17
0.0
 27
1.0
 37
0.0
 76
     0
330
74
  0
LAYOUT
  5
73
102
{ACAD_REACTORS
330
62
102
}
330
62
100
AcDbPlotSettings
  1

  2

  4

  6

 40
0.0
 41
0.0
 42
0.0
 43
0.0
 44
0.0
 45
0.0
 46
0.0
 47
0.0
 48
0.0
 49
0.0
140
0.0
141
0.0
142
1.0
143
1.0
 70
  1712
 72
     0
 73
     0
 74
     0
  7

 75
     0
147
1.0
 76
     0
 77
     2
 78
   300
148
0.0
149
0.0
100
AcDbLayout
  1
Model
 70
     1
 71
     0
 10
0.0
 20
0.0
 11
12.0
 21
9.0
 12
0.0
 22
0.0
 32
0.0
 14
0.0
 24
0.0
 34
0.0
 15
0.0
 25
0.0
 35
0.0
146
0.0
 13
0.0
 23
0.0
 33
0.0
 16
1.0
 26
0.0
 36
0.0
 17
0.0
 27
1.0
 37
0.0
 76
     0
330
70
  0
MATERIAL
  5
19
102
{ACAD_XDICTIONARY
360
1A
102
}
102
{ACAD_REACTORS
330
10
102
}
330
10
100
AcDbMaterial
  1
ByBlock
 72
     0
 43
0.0208333333333333
 43
0.0
 43
0.0
 43
0.0
 43
0.0
 43
0.0208333333333333
 43
0.0
 43
0.0
 43
0.0
 43
0.0
 43
1.0
 43
0.0
 43
0.0
 43
0.0
 43
0.0
 43
1.0
 77
     0
 47
0.0208333333333333
 47
0.0
 47
0.0
 47
0.0
 47
0.0
 47
0.0208333333333333
 47
0.0
 47
0.0
 47
0.0
 47
0.0
 47
1.0
 47
0.0
 47
0.0
 47
0.0
 47
0.0
 47
1.0
171
     0
 49
0.0208333333333333
 49
0.0
 49
0.0
 49
0.0
 49
0.0
 49
0.0208333333333333
 49
0.0
 49
0.0
 49
0.0
 49
0.0
 49
1.0
 49
0.0
 49
0.0
 49
0.0
 49
0.0
 49
1.0
175
     0
142
0.0208333333333333
142
0.0
142
0.0
142
0.0
142
0.0
142
0.0208333333333333
142
0.0
142
0.0
142
0.0
142
0.0
142
1.0
142
0.0
142
0.0
142
0.0
142
0.0
142
1.0
179
     0
144
0.0208333333333333
144
0.0
144
0.0
144
0.0
144
0.0
144
0.0208333333333333
144
0.0
144
0.0
144
0.0
144
0.0
144
1.0
144
0.0
144
0.0
144
0.0
144
0.0
144
1.0
147
0.0208333333333333
147
0.0
147
0.0
147
0.0
147
0.0
147
0.0208333333333333
147
0.0
147
0.0
147
0.0
147
0.0
147
1.0
147
0.0
147
0.0
147
0.0
147
0.0
147
1.0
  0
MATERIAL
  5
11
102
{ACAD_XDICTIONARY
360
12
102
}
102
{ACAD_REACTORS
330
10
102
}
330
10
100
AcDbMaterial
  1
ByLayer
 72
     0
 43
0.0208333333333333
 43
0.0
 43
0.0
 43
0.0
 43
0.0
 43
0.0208333333333333
 43
0.0
 43
0.0
 43
0.0
 43
0.0
 43
1.0
 43
0.0
 43
0.0
 43
0.0
 43
0.0
 43
1.0
 77
     0
 47
0.0208333333333333
 47
0.0
 47
0.0
 47
0.0
 47
0.0
 47
0.0208333333333333
 47
0.0
 47
0.0
 47
0.0
 47
0.0
 47
1.0
 47
0.0
 47
0.0
 47
0.0
 47
0.0
 47
1.0
171
     0
 49
0.0208333333333333
 49
0.0
 49
0.0
 49
0.0
 49
0.0
 49
0.0208333333333333
 49
0.0
 49
0.0
 49
0.0
 49
0.0
 49
1.0
 49
0.0
 49
0.0
 49
0.0
 49
0.0
 49
1.0
175
     0
142
0.0208333333333333
142
0.0
142
0.0
142
0.0
142
0.0
142
0.0208333333333333
142
0.0
142
0.0
142
0.0
142
0.0
142
1.0
142
0.0
142
0.0
142
0.0
142
0.0
142
1.0
179
     0
144
0.0208333333333333
144
0.0
144
0.0
144
0.0
144
0.0
144
0.0208333333333333
144
0.0
144
0.0
144
0.0
144
0.0
144
1.0
144
0.0
144
0.0
144
0.0
144
0.0
144
1.0
147
0.0208333333333333
147
0.0
147
0.0
147
0.0
147
0.0
147
0.0208333333333333
147
0.0
147
0.0
147
0.0
147
0.0
147
1.0
147
0.0
147
0.0
147
0.0
147
0.0
147
1.0
  0
MATERIAL
  5
21
102
{ACAD_XDICTIONARY
360
22
102
}
102
{ACAD_REACTORS
330
10
102
}
330
10
100
AcDbMaterial
  1
Global
 72
     0
 43
0.0208333333333333
 43
0.0
 43
0.0
 43
0.0
 43
0.0
 43
0.0208333333333333
 43
0.0
 43
0.0
 43
0.0
 43
0.0
 43
1.0
 43
0.0
 43
0.0
 43
0.0
 43
0.0
 43
1.0
 77
     0
 47
0.0208333333333333
 47
0.0
 47
0.0
 47
0.0
 47
0.0
 47
0.0208333333333333
 47
0.0
 47
0.0
 47
0.0
 47
0.0
 47
1.0
 47
0.0
 47
0.0
 47
0.0
 47
0.0
 47
1.0
171
     0
 49
0.0208333333333333
 49
0.0
 49
0.0
 49
0.0
 49
0.0
 49
0.0208333333333333
 49
0.0
 49
0.0
 49
0.0
 49
0.0
 49
1.0
 49
0.0
 49
0.0
 49
0.0
 49
0.0
 49
1.0
175
     0
142
0.0208333333333333
142
0.0
142
0.0
142
0.0
142
0.0
142
0.0208333333333333
142
0.0
142
0.0
142
0.0
142
0.0
142
1.0
142
0.0
142
0.0
142
0.0
142
0.0
142
1.0
179
     0
144
0.0208333333333333
144
0.0
144
0.0
144
0.0
144
0.0
144
0.0208333333333333
144
0.0
144
0.0
144
0.0
144
0.0
144
1.0
144
0.0
144
0.0
144
0.0
144
0.0
144
1.0
147
0.0208333333333333
147
0.0
147
0.0
147
0.0
147
0.0
147
0.0208333333333333
147
0.0
147
0.0
147
0.0
147
0.0
147
1.0
147
0.0
147
0.0
147
0.0
147
0.0
147
1.0
  0
MLEADERSTYLE
  5
67
102
{ACAD_REACTORS
330
66
102
}
330
66
100
AcDbMLeaderStyle
179
     2
170
     2
171
     1
172
     0
 90
        2
 40
0.0
 41
0.0
173
     1
 91
-1056964608
340
5B
 92
       -2
290
     1
 42
0.09
291
     1
 43
0.36
  3
Standard
 44
0.18
300

342
55
174
     1
178
     6
175
     1
176
     0
 93
-1056964608
 45
0.18
292
     0
297
     0
 46
0.18
 94
-1056964608
 47
1.0
 49
1.0
140
1.0
293
     1
141
0.0
294
     1
177
     0
142
1.0
295
     1
296
     0
143
0.125
271
     0
272
     9
273
     9
298
     1
  0
MLINESTYLE
  5
60
102
{ACAD_REACTORS
330
5F
102
}
330
5F
100
AcDbMlineStyle
  2
STANDARD
 70
     0
  3

 62
   256
 51
90.0
 52
90.0
 71
     2
 49
0.5
 62
   256
  6
BYLAYER
 49
-0.5
 62
   256
  6
BYLAYER
  0
ACDBPLACEHOLDER
  5
F
102
{ACAD_REACTORS
330
E
102
}
330
E
  0
SCALE
  5
43
102
{ACAD_REACTORS
330
42
102
}
330
42
100
AcDbScale
 70
     0
300
1:1
140
1.0
141
1.0
290
     1
  0
SCALE
  5
44
102
{ACAD_REACTORS
330
42
102
}
330
42
100
AcDbScale
 70
     0
300
1/128" = 1'-0"
140
0.0078125
141
12.0
290
     0
  0
SCALE
  5
45
102
{ACAD_REACTORS
330
42
102
}
330
42
100
AcDbScale
 70
     0
300
1/64" = 1'-0"
140
0.015625
141
12.0
290
     0
  0
SCALE
  5
46
102
{ACAD_REACTORS
330
42
102
}
330
42
100
AcDbScale
 70
     0
300
1/32" = 1'-0"
140
0.03125
141
12.0
290
     0
  0
SCALE
  5
47
102
{ACAD_REACTORS
330
42
102
}
330
42
100
AcDbScale
 70
     0
300
1/16" = 1'-0"
140
0.0625
141
12.0
290
     0
  0
SCALE
  5
48
102
{ACAD_REACTORS
330
42
102
}
330
42
100
AcDbScale
 70
     0
300
3/32" = 1'-0"
140
0.09375
141
12.0
290
     0
  0
SCALE
  5
49
102
{ACAD_REACTORS
330
42
102
}
330
42
100
AcDbScale
 70
     0
300
1/8" = 1'-0"
140
0.125
141
12.0
290
     0
  0
SCALE
  5
4A
102
{ACAD_REACTORS
330
42
102
}
330
42
100
AcDbScale
 70
     0
300
3/16" = 1'-0"
140
0.1875
141
12.0
290
     0
  0
SCALE
  5
4B
102
{ACAD_REACTORS
330
42
102
}
330
42
100
AcDbScale
 70
     0
300
1/4" = 1'-0"
140
0.25
141
12.0
290
     0
  0
SCALE
  5
4C
102
{ACAD_REACTORS
330
42
102
}
330
42
100
AcDbScale
 70
     0
300
3/8" = 1'-0"
140
0.375
141
12.0
290
     0
  0
SCALE
  5
4D
102
{ACAD_REACTORS
330
42
102
}
330
42
100
AcDbScale
 70
     0
300
1/2" = 1'-0"
140
0.5
141
12.0
290
     0
  0
SCALE
  5
4E
102
{ACAD_REACTORS
330
42
102
}
330
42
100
AcDbScale
 70
     0
300
3/4" = 1'-0"
140
0.75
141
12.0
290
     0
  0
SCALE
  5
4F
102
{ACAD_REACTORS
330
42
102
}
330
42
100
AcDbScale
 70
     0
300
1" = 1'-0"
140
1.0
141
12.0
290
     0
  0
SCALE
  5
50
102
{ACAD_REACTORS
330
42
102
}
330
42
100
AcDbScale
 70
     0
300
1-1/2" = 1'-0"
140
1.5
141
12.0
290
     0
  0
SCALE
  5
51
102
{ACAD_REACTORS
330
42
102
}
330
42
100
AcDbScale
 70
     0
300
3" = 1'-0"
140
3.0
141
12.0
290
     0
  0
SCALE
  5
52
102
{ACAD_REACTORS
330
42
102
}
330
42
100
AcDbScale
 70
     0
300
6" = 1'-0"
140
6.0
141
12.0
290
     0
  0
SCALE
  5
53
102
{ACAD_REACTORS
330
42
102
}
330
42
100
AcDbScale
 70
     0
300
1'-0" = 1'-0"
140
12.0
141
12.0
290
     0
  0
ACDBSECTIONVIEWSTYLE
  5
69
102
{ACAD_REACTORS
330
68
102
}
330
68
100
AcDbModelDocViewStyle
 70
     0
  3
Imperial24
290
     1
300
Imperial24
 90
        0
100
AcDbSectionViewStyle
 70
     0
 71
     0
 90
       78
 71
     1
340
55
 62
   256
 40
0.24
340
0
340
0
 62
   256
 40
0.24
300
I, O, Q, S, X, Z
 40
0.48
 90
        3
 40
0.18
 90
        1
 71
     2
340
5D
 90
       25
 62
   256
340
5D
 90
       50
 62
   256
 40
0.24
 40
0.0
 40
0.24
 71
     3
340
55
 62
   256
 40
0.24
 90
        1
 40
0.75
 90
        1
300
%<\AcVar ViewType \f "%tc1">% %<\AcVar ViewSectionStartId>%-%<\AcVar ViewSectionEndId>%\PSCALE %<\AcVar ViewScale \f "%sn">%
 71
     4
 62
   256
 62
   257
300
ANSI31
 40
1.0
 90
        0
290
     0
290
     0
 90
        6
 40
0.0
 40
1.570796326794896
 40
0.2617993877991494
 40
1.308996938995747
 40
-0.2617993877991494
 40
1.832595714594046
  0
TABLESTYLE
  5
65
102
{ACAD_XDICTIONARY
360
1BA
102
}
102
{ACAD_REACTORS
330
64
102
}
330
64
100
AcDbTableStyle
280
     0
  3
Standard
 70
     0
 71
     0
 40
0.06
 41
0.06
280
     0
281
     0
  7
Standard
140
0.18
170
     2
 62
     0
 63
     7
283
     0
 90
      512
 91
        0
  1

274
    -2
284
     1
 64
     0
275
    -2
285
     1
 65
     0
276
    -2
286
     1
 66
     0
277
    -2
287
     1
 67
     0
278
    -2
288
     1
 68
     0
279
    -2
289
     1
 69
     0
  7
Standard
140
0.25
170
     5
 62
     0
 63
     7
283
     0
 90
      512
 91
        0
  1

274
    -2
284
     1
 64
     0
275
    -2
285
     1
 65
     0
276
    -2
286
     1
 66
     0
277
    -2
287
     1
 67
     0
278
    -2
288
     1
 68
     0
279
    -2
289
     1
 69
     0
  7
Standard
140
0.18
170
     5
 62
     0
 63
     7
283
     0
 90
      512
 91
        0
  1

274
    -2
284
     1
 64
     0
275
    -2
285
     1
 65
     0
276
    -2
286
     1
 66
     0
277
    -2
287
     1
 67
     0
278
    -2
288
     1
 68
     0
279
    -2
289
     1
 69
     0
  0
VISUALSTYLE
  5
2F
102
{ACAD_REACTORS
330
29
102
}
330
29
100
AcDbVisualStyle
  2
2dWireframe
 70
     4
177
     3
291
     0
 70
    58
 90
        0
176
     1
 90
        2
176
     1
 90
        0
176
     1
 90
        0
176
     1
 40
0.6
176
     1
 40
30.0
176
     1
 62
     7
420
 16777215
176
     1
 90
        1
176
     1
 90
        4
176
     1
 62
     7
176
     1
 62
   257
176
     1
 90
        1
176
     1
 90
        1
176
     1
 40
1.0
176
     1
 90
        0
176
     1
 62
   257
176
     1
 40
1.0
176
     1
 90
        1
176
     1
 90
        6
176
     1
 90
        2
176
     1
 62
     7
176
     1
 90
        5
176
     1
 90
        0
176
     1
 90
        0
176
     1
290
     0
176
     1
 90
        1
176
     1
 40
0.0
176
     1
 90
        0
176
     1
290
     1
176
     1
290
     1
176
     1
290
     0
176
     1
290
     0
176
     1
290
     0
176
     1
290
     0
176
     1
290
     0
176
     1
290
     0
176
     1
290
     0
176
     1
 90
       50
176
     1
 40
0.0
176
     1
 40
1.0
176
     1
 90
        0
176
     1
 62
    18
420
        0
176
     1
 90
       50
176
     1
 90
        3
176
     1
 62
     5
420
      255
176
     1
290
     0
176
     1
 90
       50
176
     1
 90
       50
176
     1
 90
       50
176
     1
290
     0
176
     1
 90
       50
176
     1
 62
   256
176
     0
 40
1.0
176
     0
 90
        2
176
     1
  1
strokes_ogs.tif
176
     1
290
     0
176
     1
 40
1.0
176
     1
 40
1.0
176
     1
  0
VISUALSTYLE
  5
2E
102
{ACAD_REACTORS
330
29
102
}
330
29
100
AcDbVisualStyle
  2
Basic
 70
     7
177
     3
291
     1
 70
    58
 90
        1
176
     1
 90
        0
176
     1
 90
        1
176
     1
 90
        0
176
     1
 40
0.6
176
     1
 40
30.0
176
     1
 62
     7
420
 16777215
176
     1
 90
        0
176
     1
 90
        4
176
     1
 62
     7
176
     1
 62
   257
176
     1
 90
        1
176
     1
 90
        1
176
     1
 40
1.0
176
     1
 90
        8
176
     1
 62
     7
176
     1
 40
1.0
176
     1
 90
        1
176
     1
 90
        6
176
     1
 90
        2
176
     1
 62
     7
176
     1
 90
        5
176
     1
 90
        0
176
     1
 90
        0
176
     1
290
     0
176
     1
 90
        1
176
     1
 40
0.0
176
     1
 90
        0
176
     1
290
     0
176
     1
290
     1
176
     1
290
     1
176
     1
290
     0
176
     1
290
     0
176
     1
290
     0
176
     1
290
     0
176
     1
290
     0
176
     1
290
     0
176
     1
 90
       50
176
     1
 40
0.0
176
     1
 40
1.0
176
     1
 90
        0
176
     1
 62
    18
420
        0
176
     1
 90
       50
176
     1
 90
        3
176
     1
 62
     5
420
      255
176
     1
290
     0
176
     1
 90
       50
176
     1
 90
       50
176
     1
 90
       50
176
     1
290
     0
176
     1
 90
       50
176
     1
 62
   256
176
     0
 40
1.0
176
     0
 90
        2
176
     1
  1
strokes_ogs.tif
176
     1
290
     0
176
     1
 40
1.0
176
     1
 40
1.0
176
     1
  0
VISUALSTYLE
  5
35
102
{ACAD_REACTORS
330
29
102
}
330
29
100
AcDbVisualStyle
  2
Brighten
 70
    12
177
     3
291
     1
 70
    58
 90
        2
176
     1
 90
        2
176
     1
 90
        0
176
     1
 90
        0
176
     1
 40
0.6
176
     1
 40
30.0
176
     1
 62
     7
420
 16777215
176
     1
 90
        1
176
     1
 90
        4
176
     1
 62
     7
176
     1
 62
   257
176
     1
 90
        1
176
     1
 90
        1
176
     1
 40
1.0
176
     1
 90
        8
176
     1
 62
     7
176
     1
 40
1.0
176
     1
 90
        1
176
     1
 90
        6
176
     1
 90
        2
176
     1
 62
     7
176
     1
 90
        5
176
     1
 90
        0
176
     1
 90
        0
176
     1
290
     0
176
     1
 90
        1
176
     1
 40
50.0
176
     1
 90
        0
176
     1
290
     0
176
     1
290
     1
176
     1
290
     1
176
     1
290
     0
176
     1
290
     0
176
     1
290
     0
176
     1
290
     0
176
     1
290
     0
176
     1
290
     0
176
     1
 90
       50
176
     1
 40
0.0
176
     1
 40
1.0
176
     1
 90
        0
176
     1
 62
    18
420
        0
176
     1
 90
       50
176
     1
 90
        3
176
     1
 62
     5
420
      255
176
     1
290
     0
176
     1
 90
       50
176
     1
 90
       50
176
     1
 90
       50
176
     1
290
     0
176
     1
 90
       50
176
     1
 62
   256
176
     0
 40
1.0
176
     0
 90
        2
176
     1
  1
strokes_ogs.tif
176
     1
290
     0
176
     1
 40
1.0
176
     1
 40
1.0
176
     1
  0
VISUALSTYLE
  5
39
102
{ACAD_REACTORS
330
29
102
}
330
29
100
AcDbVisualStyle
  2
ColorChange
 70
    16
177
     3
291
     1
 70
    58
 90
        2
176
     1
 90
        2
176
     1
 90
        3
176
     1
 90
        0
176
     1
 40
0.6
176
     1
 40
30.0
176
     1
 62
     8
420
  8421504
176
     1
 90
        1
176
     1
 90
        4
176
     1
 62
     7
176
     1
 62
   257
176
     1
 90
        1
176
     1
 90
        1
176
     1
 40
1.0
176
     1
 90
        8
176
     1
 62
     8
420
  8421504
176
     1
 40
1.0
176
     1
 90
        1
176
     1
 90
        6
176
     1
 90
        2
176
     1
 62
     7
176
     1
 90
        5
176
     1
 90
        0
176
     1
 90
        0
176
     1
290
     0
176
     1
 90
        1
176
     1
 40
0.0
176
     1
 90
        0
176
     1
290
     0
176
     1
290
     1
176
     1
290
     1
176
     1
290
     0
176
     1
290
     0
176
     1
290
     0
176
     1
290
     0
176
     1
290
     0
176
     1
290
     0
176
     1
 90
       50
176
     1
 40
0.0
176
     1
 40
1.0
176
     1
 90
        0
176
     1
 62
    18
420
        0
176
     1
 90
       50
176
     1
 90
        3
176
     1
 62
     5
420
      255
176
     1
290
     0
176
     1
 90
       50
176
     1
 90
       50
176
     1
 90
       50
176
     1
290
     0
176
     1
 90
       50
176
     1
 62
   256
176
     0
 40
1.0
176
     0
 90
        2
176
     1
  1
strokes_ogs.tif
176
     1
290
     0
176
     1
 40
1.0
176
     1
 40
1.0
176
     1
  0
VISUALSTYLE
  5
32
102
{ACAD_REACTORS
330
29
102
}
330
29
100
AcDbVisualStyle
  2
Conceptual
 70
     9
177
     3
291
     0
 70
    58
 90
        3
176
     1
 90
        2
176
     1
 90
        0
176
     1
 90
        0
176
     1
 40
0.6
176
     1
 40
30.0
176
     1
 62
     7
420
 16777215
176
     1
 90
        2
176
     1
 90
        2
176
     1
 62
     7
176
     1
 62
   257
176
     1
 90
        1
176
     1
 90
        1
176
     1
 40
179.0
176
     1
 90
        8
176
     1
 62
     7
176
     1
 40
1.0
176
     1
 90
        1
176
     1
 90
        6
176
     1
 90
        2
176
     1
 62
     7
176
     1
 90
        3
176
     1
 90
        0
176
     1
 90
        0
176
     1
290
     0
176
     1
 90
        1
176
     1
 40
0.0
176
     1
 90
        0
176
     1
290
     0
176
     1
290
     1
176
     1
290
     1
176
     1
290
     0
176
     1
290
     0
176
     1
290
     0
176
     1
290
     0
176
     1
290
     0
176
     1
290
     0
176
     1
 90
       50
176
     1
 40
0.0
176
     1
 40
1.0
176
     1
 90
        0
176
     1
 62
    18
420
        0
176
     1
 90
       50
176
     1
 90
        3
176
     1
 62
     5
420
      255
176
     1
290
     0
176
     1
 90
       50
176
     1
 90
       50
176
     1
 90
       50
176
     1
290
     0
176
     1
 90
       50
176
     1
 62
   256
176
     0
 40
1.0
176
     0
 90
        2
176
     1
  1
strokes_ogs.tif
176
     1
290
     0
176
     1
 40
1.0
176
     1
 40
1.0
176
     1
  0
VISUALSTYLE
  5
34
102
{ACAD_REACTORS
330
29
102
}
330
29
100
AcDbVisualStyle
  2
Dim
 70
    11
177
     3
291
     1
 70
    58
 90
        2
176
     1
 90
        2
176
     1
 90
        0
176
     1
 90
        0
176
     1
 40
0.6
176
     1
 40
30.0
176
     1
 62
     7
420
 16777215
176
     1
 90
        1
176
     1
 90
        4
176
     1
 62
     7
176
     1
 62
   257
176
     1
 90
        1
176
     1
 90
        1
176
     1
 40
1.0
176
     1
 90
        8
176
     1
 62
     7
176
     1
 40
1.0
176
     1
 90
        1
176
     1
 90
        6
176
     1
 90
        2
176
     1
 62
     7
176
     1
 90
        5
176
     1
 90
        0
176
     1
 90
        0
176
     1
290
     0
176
     1
 90
        1
176
     1
 40
-50.0
176
     1
 90
        0
176
     1
290
     0
176
     1
290
     1
176
     1
290
     1
176
     1
290
     0
176
     1
290
     0
176
     1
290
     0
176
     1
290
     0
176
     1
290
     0
176
     1
290
     0
176
     1
 90
       50
176
     1
 40
0.0
176
     1
 40
1.0
176
     1
 90
        0
176
     1
 62
    18
420
        0
176
     1
 90
       50
176
     1
 90
        3
176
     1
 62
     5
420
      255
176
     1
290
     0
176
     1
 90
       50
176
     1
 90
       50
176
     1
 90
       50
176
     1
290
     0
176
     1
 90
       50
176
     1
 62
   256
176
     0
 40
1.0
176
     0
 90
        2
176
     1
  1
strokes_ogs.tif
176
     1
290
     0
176
     1
 40
1.0
176
     1
 40
1.0
176
     1
  0
VISUALSTYLE
  5
41
102
{ACAD_REACTORS
330
29
102
}
330
29
100
AcDbVisualStyle
  2
EdgeColorOff
 70
    22
177
     3
291
     1
 70
    58
 90
        2
176
     0
 90
        2
176
     0
 90
        0
176
     0
 90
        0
176
     0
 40
0.6
176
     0
 40
30.0
176
     0
 62
     7
420
 16777215
176
     0
 90
        1
176
     0
 90
        4
176
     0
 62
     7
176
     0
 62
   257
176
     0
 90
        1
176
     0
 90
        1
176
     0
 40
1.0
176
     0
 90
        8
176
     2
 62
     7
176
     0
 40
1.0
176
     0
 90
        1
176
     0
 90
        6
176
     0
 90
        2
176
     0
 62
     7
176
     0
 90
        5
176
     0
 90
        0
176
     0
 90
        0
176
     0
290
     0
176
     0
 90
        1
176
     0
 40
0.0
176
     0
 90
        0
176
     0
290
     0
176
     0
290
     1
176
     0
290
     1
176
     0
290
     0
176
     0
290
     0
176
     0
290
     0
176
     0
290
     0
176
     0
290
     0
176
     0
290
     0
176
     0
 90
       50
176
     0
 40
0.0
176
     0
 40
1.0
176
     0
 90
        0
176
     0
 62
    18
420
        0
176
     0
 90
       50
176
     0
 90
        3
176
     0
 62
     5
420
      255
176
     0
290
     0
176
     0
 90
       50
176
     0
 90
       50
176
     0
 90
       50
176
     0
290
     0
176
     0
 90
       50
176
     0
 62
   256
176
     0
 40
1.0
176
     0
 90
        2
176
     0
  1
strokes_ogs.tif
176
     0
290
     0
176
     0
 40
1.0
176
     0
 40
1.0
176
     0
  0
VISUALSTYLE
  5
38
102
{ACAD_REACTORS
330
29
102
}
330
29
100
AcDbVisualStyle
  2
Facepattern
 70
    15
177
     3
291
     1
 70
    58
 90
        2
176
     1
 90
        2
176
     1
 90
        0
176
     1
 90
        0
176
     1
 40
0.6
176
     1
 40
30.0
176
     1
 62
     7
420
 16777215
176
     1
 90
        1
176
     1
 90
        4
176
     1
 62
     7
176
     1
 62
   257
176
     1
 90
        1
176
     1
 90
        1
176
     1
 40
1.0
176
     1
 90
        8
176
     1
 62
     7
176
     1
 40
1.0
176
     1
 90
        1
176
     1
 90
        6
176
     1
 90
        2
176
     1
 62
     7
176
     1
 90
        5
176
     1
 90
        0
176
     1
 90
        0
176
     1
290
     0
176
     1
 90
        1
176
     1
 40
0.0
176
     1
 90
        0
176
     1
290
     0
176
     1
290
     1
176
     1
290
     1
176
     1
290
     0
176
     1
290
     0
176
     1
290
     0
176
     1
290
     0
176
     1
290
     0
176
     1
290
     0
176
     1
 90
       50
176
     1
 40
0.0
176
     1
 40
1.0
176
     1
 90
        0
176
     1
 62
    18
420
        0
176
     1
 90
       50
176
     1
 90
        3
176
     1
 62
     5
420
      255
176
     1
290
     0
176
     1
 90
       50
176
     1
 90
       50
176
     1
 90
       50
176
     1
290
     0
176
     1
 90
       50
176
     1
 62
   256
176
     0
 40
1.0
176
     0
 90
        2
176
     1
  1
strokes_ogs.tif
176
     1
290
     0
176
     1
 40
1.0
176
     1
 40
1.0
176
     1
  0
VISUALSTYLE
  5
2A
102
{ACAD_REACTORS
330
29
102
}
330
29
100
AcDbVisualStyle
  2
Flat
 70
     0
177
     3
291
     1
 70
    58
 90
        2
176
     1
 90
        1
176
     1
 90
        1
176
     1
 90
        2
176
     1
 40
0.6
176
     1
 40
30.0
176
     1
 62
     7
420
 16777215
176
     1
 90
        0
176
     1
 90
        0
176
     1
 62
     7
176
     1
 62
   257
176
     1
 90
        1
176
     1
 90
        1
176
     1
 40
1.0
176
     1
 90
        8
176
     1
 62
     7
176
     1
 40
1.0
176
     1
 90
        1
176
     1
 90
        6
176
     1
 90
        2
176
     1
 62
     7
176
     1
 90
        5
176
     1
 90
        0
176
     1
 90
        0
176
     1
290
     0
176
     1
 90
       13
176
     1
 40
0.0
176
     1
 90
        0
176
     1
290
     0
176
     1
290
     1
176
     1
290
     1
176
     1
290
     0
176
     1
290
     0
176
     1
290
     0
176
     1
290
     0
176
     1
290
     0
176
     1
290
     0
176
     1
 90
       50
176
     1
 40
0.0
176
     1
 40
1.0
176
     1
 90
        0
176
     1
 62
    18
420
        0
176
     1
 90
       50
176
     1
 90
        3
176
     1
 62
     5
420
      255
176
     1
290
     0
176
     1
 90
       50
176
     1
 90
       50
176
     1
 90
       50
176
     1
290
     0
176
     1
 90
       50
176
     1
 62
   256
176
     0
 40
1.0
176
     0
 90
        2
176
     1
  1
strokes_ogs.tif
176
     1
290
     0
176
     1
 40
1.0
176
     1
 40
1.0
176
     1
  0
VISUALSTYLE
  5
2B
102
{ACAD_REACTORS
330
29
102
}
330
29
100
AcDbVisualStyle
  2
FlatWithEdges
 70
     1
177
     3
291
     1
 70
    58
 90
        2
176
     1
 90
        1
176
     1
 90
        1
176
     1
 90
        2
176
     1
 40
0.6
176
     1
 40
30.0
176
     1
 62
     7
420
 16777215
176
     1
 90
        1
176
     1
 90
        0
176
     1
 62
     7
176
     1
 62
   257
176
     1
 90
        1
176
     1
 90
        1
176
     1
 40
1.0
176
     1
 90
        0
176
     1
 62
   257
176
     1
 40
1.0
176
     1
 90
        1
176
     1
 90
        6
176
     1
 90
        2
176
     1
 62
     7
176
     1
 90
        5
176
     1
 90
        0
176
     1
 90
        0
176
     1
290
     0
176
     1
 90
       13
176
     1
 40
0.0
176
     1
 90
        0
176
     1
290
     0
176
     1
290
     1
176
     1
290
     1
176
     1
290
     0
176
     1
290
     0
176
     1
290
     0
176
     1
290
     0
176
     1
290
     0
176
     1
290
     0
176
     1
 90
       50
176
     1
 40
0.0
176
     1
 40
1.0
176
     1
 90
        0
176
     1
 62
    18
420
        0
176
     1
 90
       50
176
     1
 90
        3
176
     1
 62
     5
420
      255
176
     1
290
     0
176
     1
 90
       50
176
     1
 90
       50
176
     1
 90
       50
176
     1
290
     0
176
     1
 90
       50
176
     1
 62
   256
176
     0
 40
1.0
176
     0
 90
        2
176
     1
  1
strokes_ogs.tif
176
     1
290
     0
176
     1
 40
1.0
176
     1
 40
1.0
176
     1
  0
VISUALSTYLE
  5
2C
102
{ACAD_REACTORS
330
29
102
}
330
29
100
AcDbVisualStyle
  2
Gouraud
 70
     2
177
     3
291
     1
 70
    58
 90
        2
176
     1
 90
        2
176
     1
 90
        1
176
     1
 90
        2
176
     1
 40
0.6
176
     1
 40
30.0
176
     1
 62
     7
420
 16777215
176
     1
 90
        0
176
     1
 90
        0
176
     1
 62
     7
176
     1
 62
   257
176
     1
 90
        1
176
     1
 90
        1
176
     1
 40
1.0
176
     1
 90
        0
176
     1
 62
     7
176
     1
 40
1.0
176
     1
 90
        1
176
     1
 90
        6
176
     1
 90
        2
176
     1
 62
     7
176
     1
 90
        5
176
     1
 90
        0
176
     1
 90
        0
176
     1
290
     0
176
     1
 90
       13
176
     1
 40
0.0
176
     1
 90
        0
176
     1
290
     0
176
     1
290
     1
176
     1
290
     1
176
     1
290
     0
176
     1
290
     0
176
     1
290
     0
176
     1
290
     0
176
     1
290
     0
176
     1
290
     0
176
     1
 90
       50
176
     1
 40
0.0
176
     1
 40
1.0
176
     1
 90
        0
176
     1
 62
    18
420
        0
176
     1
 90
       50
176
     1
 90
        3
176
     1
 62
     5
420
      255
176
     1
290
     0
176
     1
 90
       50
176
     1
 90
       50
176
     1
 90
       50
176
     1
290
     0
176
     1
 90
       50
176
     1
 62
   256
176
     0
 40
1.0
176
     0
 90
        2
176
     1
  1
strokes_ogs.tif
176
     1
290
     0
176
     1
 40
1.0
176
     1
 40
1.0
176
     1
  0
VISUALSTYLE
  5
2D
102
{ACAD_REACTORS
330
29
102
}
330
29
100
AcDbVisualStyle
  2
GouraudWithEdges
 70
     3
177
     3
291
     1
 70
    58
 90
        2
176
     1
 90
        2
176
     1
 90
        1
176
     1
 90
        2
176
     1
 40
0.6
176
     1
 40
30.0
176
     1
 62
     7
420
 16777215
176
     1
 90
        1
176
     1
 90
        0
176
     1
 62
     7
176
     1
 62
   257
176
     1
 90
        1
176
     1
 90
        1
176
     1
 40
1.0
176
     1
 90
        0
176
     1
 62
   257
176
     1
 40
1.0
176
     1
 90
        1
176
     1
 90
        6
176
     1
 90
        2
176
     1
 62
     7
176
     1
 90
        5
176
     1
 90
        0
176
     1
 90
        0
176
     1
290
     0
176
     1
 90
       13
176
     1
 40
0.0
176
     1
 90
        0
176
     1
290
     0
176
     1
290
     1
176
     1
290
     1
176
     1
290
     0
176
     1
290
     0
176
     1
290
     0
176
     1
290
     0
176
     1
290
     0
176
     1
290
     0
176
     1
 90
       50
176
     1
 40
0.0
176
     1
 40
1.0
176
     1
 90
        0
176
     1
 62
    18
420
        0
176
     1
 90
       50
176
     1
 90
        3
176
     1
 62
     5
420
      255
176
     1
290
     0
176
     1
 90
       50
176
     1
 90
       50
176
     1
 90
       50
176
     1
290
     0
176
     1
 90
       50
176
     1
 62
   256
176
     0
 40
1.0
176
     0
 90
        2
176
     1
  1
strokes_ogs.tif
176
     1
290
     0
176
     1
 40
1.0
176
     1
 40
1.0
176
     1
  0
VISUALSTYLE
  5
31
102
{ACAD_REACTORS
330
29
102
}
330
29
100
AcDbVisualStyle
  2
Hidden
 70
     6
177
     3
291
     0
 70
    58
 90
        1
176
     1
 90
        2
176
     1
 90
        2
176
     1
 90
        0
176
     1
 40
0.6
176
     1
 40
30.0
176
     1
 62
     7
420
 16777215
176
     1
 90
        2
176
     1
 90
        2
176
     1
 62
     7
176
     1
 62
   257
176
     1
 90
        2
176
     1
 90
        1
176
     1
 40
40.0
176
     1
 90
        0
176
     1
 62
   257
176
     1
 40
1.0
176
     1
 90
        1
176
     1
 90
        6
176
     1
 90
        2
176
     1
 62
     7
176
     1
 90
        3
176
     1
 90
        0
176
     1
 90
        0
176
     1
290
     0
176
     1
 90
        1
176
     1
 40
0.0
176
     1
 90
        0
176
     1
290
     0
176
     1
290
     1
176
     1
290
     1
176
     1
290
     0
176
     1
290
     0
176
     1
290
     0
176
     1
290
     0
176
     1
290
     0
176
     1
290
     0
176
     1
 90
       50
176
     1
 40
0.0
176
     1
 40
1.0
176
     1
 90
        0
176
     1
 62
    18
420
        0
176
     1
 90
       50
176
     1
 90
        3
176
     1
 62
     5
420
      255
176
     1
290
     0
176
     1
 90
       50
176
     1
 90
       50
176
     1
 90
       50
176
     1
290
     0
176
     1
 90
       50
176
     1
 62
   256
176
     0
 40
1.0
176
     0
 90
        2
176
     1
  1
strokes_ogs.tif
176
     1
290
     0
176
     1
 40
1.0
176
     1
 40
1.0
176
     1
  0
VISUALSTYLE
  5
3F
102
{ACAD_REACTORS
330
29
102
}
330
29
100
AcDbVisualStyle
  2
JitterOff
 70
    20
177
     3
291
     1
 70
    58
 90
        2
176
     0
 90
        2
176
     0
 90
        0
176
     0
 90
        0
176
     0
 40
0.6
176
     0
 40
30.0
176
     0
 62
     7
420
 16777215
176
     0
 90
        1
176
     0
 90
        4
176
     0
 62
     7
176
     0
 62
   257
176
     0
 90
        1
176
     0
 90
        1
176
     0
 40
1.0
176
     0
 90
       10
176
     2
 62
     7
176
     0
 40
1.0
176
     0
 90
        1
176
     0
 90
        6
176
     0
 90
        2
176
     0
 62
     7
176
     0
 90
        5
176
     0
 90
        0
176
     0
 90
        0
176
     0
290
     0
176
     0
 90
        1
176
     0
 40
0.0
176
     0
 90
        0
176
     0
290
     0
176
     0
290
     1
176
     0
290
     1
176
     0
290
     0
176
     0
290
     0
176
     0
290
     0
176
     0
290
     0
176
     0
290
     0
176
     0
290
     0
176
     0
 90
       50
176
     0
 40
0.0
176
     0
 40
1.0
176
     0
 90
        0
176
     0
 62
    18
420
        0
176
     0
 90
       50
176
     0
 90
        3
176
     0
 62
     5
420
      255
176
     0
290
     0
176
     0
 90
       50
176
     0
 90
       50
176
     0
 90
       50
176
     0
290
     0
176
     0
 90
       50
176
     0
 62
   256
176
     0
 40
1.0
176
     0
 90
        2
176
     0
  1
strokes_ogs.tif
176
     0
290
     0
176
     0
 40
1.0
176
     0
 40
1.0
176
     0
  0
VISUALSTYLE
  5
37
102
{ACAD_REACTORS
330
29
102
}
330
29
100
AcDbVisualStyle
  2
Linepattern
 70
    14
177
     3
291
     1
 70
    58
 90
        2
176
     1
 90
        2
176
     1
 90
        0
176
     1
 90
        0
176
     1
 40
0.6
176
     1
 40
30.0
176
     1
 62
     7
420
 16777215
176
     1
 90
        1
176
     1
 90
        4
176
     1
 62
     7
176
     1
 62
   257
176
     1
 90
        7
176
     1
 90
        7
176
     1
 40
1.0
176
     1
 90
        8
176
     1
 62
     7
176
     1
 40
1.0
176
     1
 90
        1
176
     1
 90
        6
176
     1
 90
        2
176
     1
 62
     7
176
     1
 90
        5
176
     1
 90
        0
176
     1
 90
        0
176
     1
290
     0
176
     1
 90
        1
176
     1
 40
0.0
176
     1
 90
        0
176
     1
290
     0
176
     1
290
     1
176
     1
290
     1
176
     1
290
     0
176
     1
290
     0
176
     1
290
     0
176
     1
290
     0
176
     1
290
     0
176
     1
290
     0
176
     1
 90
       50
176
     1
 40
0.0
176
     1
 40
1.0
176
     1
 90
        0
176
     1
 62
    18
420
        0
176
     1
 90
       50
176
     1
 90
        3
176
     1
 62
     5
420
      255
176
     1
290
     0
176
     1
 90
       50
176
     1
 90
       50
176
     1
 90
       50
176
     1
290
     0
176
     1
 90
       50
176
     1
 62
   256
176
     0
 40
1.0
176
     0
 90
        2
176
     1
  1
strokes_ogs.tif
176
     1
290
     0
176
     1
 40
1.0
176
     1
 40
1.0
176
     1
  0
VISUALSTYLE
  5
40
102
{ACAD_REACTORS
330
29
102
}
330
29
100
AcDbVisualStyle
  2
OverhangOff
 70
    21
177
     3
291
     1
 70
    58
 90
        2
176
     0
 90
        2
176
     0
 90
        0
176
     0
 90
        0
176
     0
 40
0.6
176
     0
 40
30.0
176
     0
 62
     7
420
 16777215
176
     0
 90
        1
176
     0
 90
        4
176
     0
 62
     7
176
     0
 62
   257
176
     0
 90
        1
176
     0
 90
        1
176
     0
 40
1.0
176
     0
 90
        9
176
     2
 62
     7
176
     0
 40
1.0
176
     0
 90
        1
176
     0
 90
        6
176
     0
 90
        2
176
     0
 62
     7
176
     0
 90
        5
176
     0
 90
        0
176
     0
 90
        0
176
     0
290
     0
176
     0
 90
        1
176
     0
 40
0.0
176
     0
 90
        0
176
     0
290
     0
176
     0
290
     1
176
     0
290
     1
176
     0
290
     0
176
     0
290
     0
176
     0
290
     0
176
     0
290
     0
176
     0
290
     0
176
     0
290
     0
176
     0
 90
       50
176
     0
 40
0.0
176
     0
 40
1.0
176
     0
 90
        0
176
     0
 62
    18
420
        0
176
     0
 90
       50
176
     0
 90
        3
176
     0
 62
     5
420
      255
176
     0
290
     0
176
     0
 90
       50
176
     0
 90
       50
176
     0
 90
       50
176
     0
290
     0
176
     0
 90
       50
176
     0
 62
   256
176
     0
 40
1.0
176
     0
 90
        2
176
     0
  1
strokes_ogs.tif
176
     0
290
     0
176
     0
 40
1.0
176
     0
 40
1.0
176
     0
  0
VISUALSTYLE
  5
33
102
{ACAD_REACTORS
330
29
102
}
330
29
100
AcDbVisualStyle
  2
Realistic
 70
     8
177
     3
291
     0
 70
    58
 90
        2
176
     1
 90
        3
176
     1
 90
        0
176
     1
 90
        2
176
     1
 40
0.6
176
     1
 40
30.0
176
     1
 62
     7
420
 16777215
176
     1
 90
        0
176
     1
 90
        0
176
     1
 62
     7
176
     1
 62
   257
176
     1
 90
        1
176
     1
 90
        1
176
     1
 40
1.0
176
     1
 90
        8
176
     1
 62
   257
176
     1
 40
1.0
176
     1
 90
        1
176
     1
 90
        6
176
     1
 90
        2
176
     1
 62
     7
176
     1
 90
        3
176
     1
 90
        0
176
     1
 90
        0
176
     1
290
     0
176
     1
 90
       13
176
     1
 40
0.0
176
     1
 90
        0
176
     1
290
     0
176
     1
290
     1
176
     1
290
     1
176
     1
290
     0
176
     1
290
     0
176
     1
290
     0
176
     1
290
     0
176
     1
290
     0
176
     1
290
     0
176
     1
 90
       50
176
     1
 40
0.0
176
     1
 40
1.0
176
     1
 90
        0
176
     1
 62
    18
420
        0
176
     1
 90
       50
176
     1
 90
        3
176
     1
 62
     5
420
      255
176
     1
290
     0
176
     1
 90
       50
176
     1
 90
       50
176
     1
 90
       50
176
     1
290
     0
176
     1
 90
       50
176
     1
 62
   256
176
     0
 40
1.0
176
     0
 90
        2
176
     1
  1
strokes_ogs.tif
176
     1
290
     0
176
     1
 40
1.0
176
     1
 40
1.0
176
     1
  0
VISUALSTYLE
  5
3E
102
{ACAD_REACTORS
330
29
102
}
330
29
100
AcDbVisualStyle
  2
Shaded
 70
    27
177
     3
291
     0
 70
    58
 90
        2
176
     1
 90
        2
176
     1
 90
        1
176
     1
 90
        2
176
     1
 40
0.6
176
     1
 40
30.0
176
     1
 62
     7
420
 16777215
176
     1
 90
        0
176
     1
 90
        4
176
     1
 62
     7
176
     1
 62
   257
176
     1
 90
        1
176
     1
 90
        1
176
     1
 40
1.0
176
     1
 90
        8
176
     1
 62
   257
176
     1
 40
1.0
176
     1
 90
        1
176
     1
 90
        6
176
     1
 90
        2
176
     1
 62
     8
420
  7895160
176
     1
 90
        3
176
     1
 90
        0
176
     1
 90
        0
176
     1
290
     0
176
     1
 90
        5
176
     1
 40
0.0
176
     1
 90
        0
176
     1
290
     0
176
     1
290
     1
176
     1
290
     1
176
     1
290
     0
176
     1
290
     0
176
     1
290
     0
176
     1
290
     0
176
     1
290
     0
176
     1
290
     0
176
     1
 90
       50
176
     1
 40
0.0
176
     1
 40
1.0
176
     1
 90
        0
176
     1
 62
    18
420
        0
176
     1
 90
       50
176
     1
 90
        3
176
     1
 62
     5
420
      255
176
     1
290
     0
176
     1
 90
       50
176
     1
 90
       50
176
     1
 90
       50
176
     1
290
     0
176
     1
 90
       50
176
     1
 62
   256
176
     0
 40
1.0
176
     0
 90
        2
176
     1
  1
strokes_ogs.tif
176
     1
290
     0
176
     1
 40
1.0
176
     1
 40
1.0
176
     1
  0
VISUALSTYLE
  5
3D
102
{ACAD_REACTORS
330
29
102
}
330
29
100
AcDbVisualStyle
  2
Shaded with edges
 70
    26
177
     3
291
     0
 70
    58
 90
        2
176
     1
 90
        2
176
     1
 90
        1
176
     1
 90
        2
176
     1
 40
0.6
176
     1
 40
30.0
176
     1
 62
     7
420
 16777215
176
     1
 90
        1
176
     1
 90
        2
176
     1
 62
     7
176
     1
 62
   257
176
     1
 90
        2
176
     1
 90
        1
176
     1
 40
1.0
176
     1
 90
        8
176
     1
 62
   257
176
     1
 40
1.0
176
     1
 90
        1
176
     1
 90
        6
176
     1
 90
        2
176
     1
 62
     7
176
     1
 90
        3
176
     1
 90
        0
176
     1
 90
        0
176
     1
290
     0
176
     1
 90
        5
176
     1
 40
0.0
176
     1
 90
        0
176
     1
290
     0
176
     1
290
     1
176
     1
290
     1
176
     1
290
     0
176
     1
290
     0
176
     1
290
     0
176
     1
290
     0
176
     1
290
     0
176
     1
290
     0
176
     1
 90
       50
176
     1
 40
0.0
176
     1
 40
1.0
176
     1
 90
        0
176
     1
 62
    18
420
        0
176
     1
 90
       50
176
     1
 90
        3
176
     1
 62
     5
420
      255
176
     1
290
     0
176
     1
 90
       50
176
     1
 90
       50
176
     1
 90
       50
176
     1
290
     0
176
     1
 90
       50
176
     1
 62
   256
176
     0
 40
1.0
176
     0
 90
        2
176
     1
  1
strokes_ogs.tif
176
     1
290
     0
176
     1
 40
1.0
176
     1
 40
1.0
176
     1
  0
VISUALSTYLE
  5
3A
102
{ACAD_REACTORS
330
29
102
}
330
29
100
AcDbVisualStyle
  2
Shades of Gray
 70
    23
177
     3
291
     0
 70
    58
 90
        2
176
     1
 90
        2
176
     1
 90
        3
176
     1
 90
        0
176
     1
 40
0.6
176
     1
 40
30.0
176
     1
 62
     7
420
 16777215
176
     1
 90
        2
176
     1
 90
        2
176
     1
 62
     7
176
     1
 62
     7
176
     1
 90
        1
176
     1
 90
        1
176
     1
 40
40.0
176
     1
 90
        8
176
     1
 62
     7
176
     1
 40
1.0
176
     1
 90
        1
176
     1
 90
        6
176
     1
 90
        2
176
     1
 62
     7
176
     1
 90
        3
176
     1
 90
        0
176
     1
 90
        0
176
     1
290
     0
176
     1
 90
        1
176
     1
 40
0.0
176
     1
 90
        0
176
     1
290
     0
176
     1
290
     1
176
     1
290
     1
176
     1
290
     0
176
     1
290
     0
176
     1
290
     0
176
     1
290
     0
176
     1
290
     0
176
     1
290
     0
176
     1
 90
       50
176
     1
 40
0.0
176
     1
 40
1.0
176
     1
 90
        0
176
     1
 62
    18
420
        0
176
     1
 90
       50
176
     1
 90
        3
176
     1
 62
     5
420
      255
176
     1
290
     0
176
     1
 90
       50
176
     1
 90
       50
176
     1
 90
       50
176
     1
290
     0
176
     1
 90
       50
176
     1
 62
   256
176
     0
 40
1.0
176
     0
 90
        2
176
     1
  1
strokes_ogs.tif
176
     1
290
     0
176
     1
 40
1.0
176
     1
 40
1.0
176
     1
  0
VISUALSTYLE
  5
3B
102
{ACAD_REACTORS
330
29
102
}
330
29
100
AcDbVisualStyle
  2
Sketchy
 70
    24
177
     3
291
     0
 70
    58
 90
        1
176
     1
 90
        2
176
     1
 90
        2
176
     1
 90
        0
176
     1
 40
0.6
176
     1
 40
30.0
176
     1
 62
     7
420
 16777215
176
     1
 90
        2
176
     1
 90
        2
176
     1
 62
     7
176
     1
 62
     7
176
     1
 90
        1
176
     1
 90
        1
176
     1
 40
40.0
176
     1
 90
       11
176
     1
 62
     7
176
     1
 40
1.0
176
     1
 90
        1
176
     1
 90
        6
176
     1
 90
        2
176
     1
 62
     7
176
     1
 90
        6
176
     1
 90
        0
176
     1
 90
        0
176
     1
290
     0
176
     1
 90
        1
176
     1
 40
0.0
176
     1
 90
        0
176
     1
290
     0
176
     1
290
     1
176
     1
290
     1
176
     1
290
     0
176
     1
290
     0
176
     1
290
     0
176
     1
290
     0
176
     1
290
     0
176
     1
290
     0
176
     1
 90
       50
176
     1
 40
0.0
176
     1
 40
1.0
176
     1
 90
        0
176
     1
 62
    18
420
        0
176
     1
 90
       50
176
     1
 90
        3
176
     1
 62
     5
420
      255
176
     1
290
     0
176
     1
 90
       50
176
     1
 90
       50
176
     1
 90
       50
176
     1
290
     0
176
     1
 90
       50
176
     1
 62
   256
176
     0
 40
1.0
176
     0
 90
        2
176
     1
  1
strokes_ogs.tif
176
     1
290
     0
176
     1
 40
1.0
176
     1
 40
1.0
176
     1
  0
VISUALSTYLE
  5
36
102
{ACAD_REACTORS
330
29
102
}
330
29
100
AcDbVisualStyle
  2
Thicken
 70
    13
177
     3
291
     1
 70
    58
 90
        2
176
     1
 90
        2
176
     1
 90
        0
176
     1
 90
        0
176
     1
 40
0.6
176
     1
 40
30.0
176
     1
 62
     7
420
 16777215
176
     1
 90
        1
176
     1
 90
        4
176
     1
 62
     7
176
     1
 62
   257
176
     1
 90
        1
176
     1
 90
        1
176
     1
 40
1.0
176
     1
 90
       12
176
     1
 62
     7
176
     1
 40
1.0
176
     1
 90
        1
176
     1
 90
        6
176
     1
 90
        2
176
     1
 62
     7
176
     1
 90
        5
176
     1
 90
        0
176
     1
 90
        0
176
     1
290
     0
176
     1
 90
        1
176
     1
 40
0.0
176
     1
 90
        0
176
     1
290
     0
176
     1
290
     1
176
     1
290
     1
176
     1
290
     0
176
     1
290
     0
176
     1
290
     0
176
     1
290
     0
176
     1
290
     0
176
     1
290
     0
176
     1
 90
       50
176
     1
 40
0.0
176
     1
 40
1.0
176
     1
 90
        0
176
     1
 62
    18
420
        0
176
     1
 90
       50
176
     1
 90
        3
176
     1
 62
     5
420
      255
176
     1
290
     0
176
     1
 90
       50
176
     1
 90
       50
176
     1
 90
       50
176
     1
290
     0
176
     1
 90
       50
176
     1
 62
   256
176
     0
 40
1.0
176
     0
 90
        2
176
     1
  1
strokes_ogs.tif
176
     1
290
     0
176
     1
 40
1.0
176
     1
 40
1.0
176
     1
  0
VISUALSTYLE
  5
30
102
{ACAD_REACTORS
330
29
102
}
330
29
100
AcDbVisualStyle
  2
Wireframe
 70
     5
177
     3
291
     0
 70
    58
 90
        0
176
     1
 90
        2
176
     1
 90
        0
176
     1
 90
        0
176
     1
 40
0.6
176
     1
 40
30.0
176
     1
 62
     7
420
 16777215
176
     1
 90
        1
176
     1
 90
        4
176
     1
 62
     7
176
     1
 62
   257
176
     1
 90
        1
176
     1
 90
        1
176
     1
 40
1.0
176
     1
 90
        0
176
     1
 62
   257
176
     1
 40
1.0
176
     1
 90
        1
176
     1
 90
        6
176
     1
 90
        2
176
     1
 62
     7
176
     1
 90
        3
176
     1
 90
        0
176
     1
 90
        0
176
     1
290
     0
176
     1
 90
        1
176
     1
 40
0.0
176
     1
 90
        0
176
     1
290
     0
176
     1
290
     1
176
     1
290
     1
176
     1
290
     0
176
     1
290
     0
176
     1
290
     0
176
     1
290
     0
176
     1
290
     0
176
     1
290
     0
176
     1
 90
       50
176
     1
 40
0.0
176
     1
 40
1.0
176
     1
 90
        0
176
     1
 62
    18
420
        0
176
     1
 90
       50
176
     1
 90
        3
176
     1
 62
     5
420
      255
176
     1
290
     0
176
     1
 90
       50
176
     1
 90
       50
176
     1
 90
       50
176
     1
290
     0
176
     1
 90
       50
176
     1
 62
   256
176
     0
 40
1.0
176
     0
 90
        2
176
     1
  1
strokes_ogs.tif
176
     1
290
     0
176
     1
 40
1.0
176
     1
 40
1.0
176
     1
  0
VISUALSTYLE
  5
3C
102
{ACAD_REACTORS
330
29
102
}
330
29
100
AcDbVisualStyle
  2
X-Ray
 70
    25
177
     3
291
     0
 70
    58
 90
        2
176
     1
 90
        2
176
     1
 90
        1
176
     1
 90
        1
176
     1
 40
0.5
176
     1
 40
30.0
176
     1
 62
     7
420
 16777215
176
     1
 90
        1
176
     1
 90
        0
176
     1
 62
     7
176
     1
 62
   257
176
     1
 90
        1
176
     1
 90
        1
176
     1
 40
1.0
176
     1
 90
        8
176
     1
 62
     7
176
     1
 40
1.0
176
     1
 90
        1
176
     1
 90
        6
176
     1
 90
        2
176
     1
 62
     7
176
     1
 90
        3
176
     1
 90
        0
176
     1
 90
        0
176
     1
290
     0
176
     1
 90
       13
176
     1
 40
0.0
176
     1
 90
        0
176
     1
290
     0
176
     1
290
     1
176
     1
290
     1
176
     1
290
     0
176
     1
290
     0
176
     1
290
     0
176
     1
290
     0
176
     1
290
     0
176
     1
290
     0
176
     1
 90
       50
176
     1
 40
0.0
176
     1
 40
1.0
176
     1
 90
        0
176
     1
 62
    18
420
        0
176
     1
 90
       50
176
     1
 90
        3
176
     1
 62
     5
420
      255
176
     1
290
     0
176
     1
 90
       50
176
     1
 90
       50
176
     1
 90
       50
176
     1
290
     0
176
     1
 90
       50
176
     1
 62
   256
176
     0
 40
1.0
176
     0
 90
        2
176
     1
  1
strokes_ogs.tif
176
     1
290
     0
176
     1
 40
1.0
176
     1
 40
1.0
176
     1
  0
DICTIONARYVAR
  5
1B9
102
{ACAD_REACTORS
330
1B4
102
}
330
1B4
100
DictionaryVariables
280
     0
  1
1:1
  0
DICTIONARYVAR
  5
1B6
102
{ACAD_REACTORS
330
1B4
102
}
330
1B4
100
DictionaryVariables
280
     0
  1
STANDARD
  0
DICTIONARYVAR
  5
1B5
102
{ACAD_REACTORS
330
1B4
102
}
330
1B4
100
DictionaryVariables
280
     0
  1
STANDARD
  0
DICTIONARYVAR
  5
1B7
102
{ACAD_REACTORS
330
1B4
102
}
330
1B4
100
DictionaryVariables
280
     0
  1
Imperial24
  0
DICTIONARYVAR
  5
1B8
102
{ACAD_REACTORS
330
1B4
102
}
330
1B4
100
DictionaryVariables
280
     0
  1
Imperial24
  0
DICTIONARY
  5
1A
330
19
100
AcDbDictionary
280
     1
281
     1
  3
BUMPTILE
360
1C
  3
DIFFUSETILE
360
1B
  3
OPACITYTILE
360
1F
  3
REFLECTIONTILE
360
1E
  3
REFRACTIONTILE
360
20
  3
SPECULARTILE
360
1D
  0
DICTIONARY
  5
12
330
11
100
AcDbDictionary
280
     1
281
     1
  3
BUMPTILE
360
14
  3
DIFFUSETILE
360
13
  3
OPACITYTILE
360
17
  3
REFLECTIONTILE
360
16
  3
REFRACTIONTILE
360
18
  3
SPECULARTILE
360
15
  0
DICTIONARY
  5
22
330
21
100
AcDbDictionary
280
     1
281
     1
  3
BUMPTILE
360
24
  3
DIFFUSETILE
360
23
  3
OPACITYTILE
360
27
  3
REFLECTIONTILE
360
26
  3
REFRACTIONTILE
360
28
  3
SPECULARTILE
360
25
  0
DICTIONARY
  5
1BA
330
65
100
AcDbDictionary
280
     1
281
     1
  3
ACAD_ROUNDTRIP_2008_TABLESTYLE_CELLSTYLEMAP
360
1BB
  0
XRECORD
  5
1C
102
{ACAD_REACTORS
330
1A
102
}
330
1A
100
AcDbXrecord
280
     1
270
     1
271
     1
  0
XRECORD
  5
1B
102
{ACAD_REACTORS
330
1A
102
}
330
1A
100
AcDbXrecord
280
     1
270
     1
271
     1
  0
XRECORD
  5
1F
102
{ACAD_REACTORS
330
1A
102
}
330
1A
100
AcDbXrecord
280
     1
270
     1
271
     1
  0
XRECORD
  5
1E
102
{ACAD_REACTORS
330
1A
102
}
330
1A
100
AcDbXrecord
280
     1
270
     1
271
     1
  0
XRECORD
  5
20
102
{ACAD_REACTORS
330
1A
102
}
330
1A
100
AcDbXrecord
280
     1
270
     1
271
     1
  0
XRECORD
  5
1D
102
{ACAD_REACTORS
330
1A
102
}
330
1A
100
AcDbXrecord
280
     1
270
     1
271
     1
  0
XRECORD
  5
14
102
{ACAD_REACTORS
330
12
102
}
330
12
100
AcDbXrecord
280
     1
270
     1
271
     1
  0
XRECORD
  5
13
102
{ACAD_REACTORS
330
12
102
}
330
12
100
AcDbXrecord
280
     1
270
     1
271
     1
  0
XRECORD
  5
17
102
{ACAD_REACTORS
330
12
102
}
330
12
100
AcDbXrecord
280
     1
270
     1
271
     1
  0
XRECORD
  5
16
102
{ACAD_REACTORS
330
12
102
}
330
12
100
AcDbXrecord
280
     1
270
     1
271
     1
  0
XRECORD
  5
18
102
{ACAD_REACTORS
330
12
102
}
330
12
100
AcDbXrecord
280
     1
270
     1
271
     1
  0
XRECORD
  5
15
102
{ACAD_REACTORS
330
12
102
}
330
12
100
AcDbXrecord
280
     1
270
     1
271
     1
  0
XRECORD
  5
24
102
{ACAD_REACTORS
330
22
102
}
330
22
100
AcDbXrecord
280
     1
270
     1
271
     1
  0
XRECORD
  5
23
102
{ACAD_REACTORS
330
22
102
}
330
22
100
AcDbXrecord
280
     1
270
     1
271
     1
  0
XRECORD
  5
27
102
{ACAD_REACTORS
330
22
102
}
330
22
100
AcDbXrecord
280
     1
270
     1
271
     1
  0
XRECORD
  5
26
102
{ACAD_REACTORS
330
22
102
}
330
22
100
AcDbXrecord
280
     1
270
     1
271
     1
  0
XRECORD
  5
28
102
{ACAD_REACTORS
330
22
102
}
330
22
100
AcDbXrecord
280
     1
270
     1
271
     1
  0
XRECORD
  5
25
102
{ACAD_REACTORS
330
22
102
}
330
22
100
AcDbXrecord
280
     1
270
     1
271
     1
  0
CELLSTYLEMAP
  5
1BB
102
{ACAD_REACTORS
330
1BA
102
}
330
1BA
100
AcDbCellStyleMap
 90
        3
300
CELLSTYLE
  1
TABLEFORMAT_BEGIN
 90
        5
170
     1
 91
        0
 92
    32768
 62
   257
 93
        1
300
CONTENTFORMAT
  1
CONTENTFORMAT_BEGIN
 90
        0
 91
        0
 92
      512
 93
        0
300

 40
0.0
140
1.0
 94
        5
 62
     0
340
55
144
0.25
309
CONTENTFORMAT_END
171
     0
 94
        0
309
TABLEFORMAT_END
  1
CELLSTYLE_BEGIN
 90
        1
 91
        1
300
_TITLE
309
CELLSTYLE_END
300
CELLSTYLE
  1
TABLEFORMAT_BEGIN
 90
        5
170
     1
 91
        0
 92
        0
 62
   257
 93
        1
300
CONTENTFORMAT
  1
CONTENTFORMAT_BEGIN
 90
        0
 91
        0
 92
      512
 93
        0
300

 40
0.0
140
1.0
 94
        5
 62
     0
340
55
144
0.18
309
CONTENTFORMAT_END
171
     0
 94
        0
309
TABLEFORMAT_END
  1
CELLSTYLE_BEGIN
 90
        2
 91
        1
300
_HEADER
309
CELLSTYLE_END
300
CELLSTYLE
  1
TABLEFORMAT_BEGIN
 90
        5
170
     1
 91
        0
 92
        0
 62
   257
 93
        1
300
CONTENTFORMAT
  1
CONTENTFORMAT_BEGIN
 90
        0
 91
        0
 92
      512
 93
        0
300

 40
0.0
140
1.0
 94
        2
 62
     0
340
55
144
0.18
309
CONTENTFORMAT_END
171
     0
 94
        0
309
TABLEFORMAT_END
  1
CELLSTYLE_BEGIN
 90
        3
 91
        2
300
_DATA
309
CELLSTYLE_END
  0
ENDSEC
  0
EOF
